  0
SECTION
  2
HEADER
  9
$INSBASE
 10
0.0
20
0.0
  9
$REGENMODE
 70
     1
  9
$DRAGMODE
 70
     1
  9
$DIMTAD
 70
     1
  9
$EXTMIN
 10
-630.000000
 20
-891.000000
 30
 0.0
  9
$EXTMAX
 10
630.000000
 20
891.000000
 30
 0.0
  9
$LUPREC
 70
    2
  9
$AUPREC
 70
    2
  9
$LTSCALE
 40
13.125000
  0
ENDSEC
  0
SECTION
  2
TABLES
  0
TABLE
  2
LTYPE
 70
     6
  0
LTYPE
  2
CONTINUOUS
 70
    64
  3
8;
 72
    65
 73
     0
 40
0.0
  0
LTYPE
  2
DASHED2
 70
    64
  3
_ _ _ _ _ _ _ _ _ _ _ _ _ _ _ _ _ _ _ _ _ _ 
 72
    65
 73
     2
 40
0.5
 49
0.25
 49
-0.25
  0
LTYPE
  2
DASHED
 70
    64
  3
__ __ __ __ __ __ __ __ __ __ __ __ __ __ __
 72
    65
 73
     2
 40
0.75
 49
0.5
 49
-0.25
  0
LTYPE
  2
DASHEDX2
 70
    64
  3
____  ____  ____  ____  ____  ____  ____  __
 72
    65
 73
     2
 40
1.5
 49
1.0
 49
-0.5
  0
LTYPE
  2
HIDDENX2
 70
    64
  3
____ ____ ____ ____ ____ ____ ____ ____ ____
 72
    65
 73
     2
 40
0.625
 49
0.5
 49
-0.125
  0
LTYPE
  2
CENTER
 70
    64
  3
____ _ ____ _ ____ _ ____ _ ____ _ ____ _ __
 72
    65
 73
     4
 40
2.0
 49
1.25
 49
-0.25
 49
0.25
 49
-0.25
  0
LTYPE
  2
CENTERX2
 70
    64
  3
________  __  ________  __  ________  __  __
 72
    65
 73
     4
 40
4.0
 49
2.5
 49
-0.5
 49
0.5
 49
-0.5
  0
LTYPE
  2
PHANTOM2
 70
    64
  3
___ _ _ ___ _ _ ___ _ _ ___ _ _ ___ _ _ ___ 
 72
    65
 73
     6
 40
1.25
 49
0.625
 49
-0.125
 49
0.125
 49
-0.125
 49
0.125
 49
-0.125
  0
LTYPE
  2
PHANTOM
 70
    64
  3
_____ _ _ _____ _ _ _____ _ _ _____ _ _ ____
 72
    65
 73
     6
 40
2.5
 49
1.25
 49
-0.25
 49
0.25
 49
-0.25
 49
0.25
 49
-0.25
  0
ENDTAB
  0
TABLE
  2
LAYER
 70
   255
  0
LAYER
  2
0
 70
    64
 62
     7
  6
CONTINUOUS
  0
LAYER
  2
1
 70
    64
 62
     7
  6
CONTINUOUS
  0
LAYER
  2
2
 70
    64
 62
     7
  6
CONTINUOUS
  0
LAYER
  2
3
 70
    64
 62
     7
  6
CONTINUOUS
  0
LAYER
  2
4
 70
    64
 62
     7
  6
CONTINUOUS
  0
LAYER
  2
5
 70
    64
 62
     7
  6
CONTINUOUS
  0
LAYER
  2
6
 70
    64
 62
     7
  6
CONTINUOUS
  0
LAYER
  2
7
 70
    64
 62
     7
  6
CONTINUOUS
  0
LAYER
  2
8
 70
    64
 62
     7
  6
CONTINUOUS
  0
LAYER
  2
9
 70
    64
 62
     7
  6
CONTINUOUS
  0
LAYER
  2
10
 70
    64
 62
     7
  6
CONTINUOUS
  0
LAYER
  2
11
 70
    64
 62
     7
  6
CONTINUOUS
  0
LAYER
  2
12
 70
    64
 62
     7
  6
CONTINUOUS
  0
LAYER
  2
13
 70
    64
 62
     7
  6
CONTINUOUS
  0
LAYER
  2
14
 70
    64
 62
     7
  6
CONTINUOUS
  0
LAYER
  2
15
 70
    64
 62
     7
  6
CONTINUOUS
  0
LAYER
  2
16
 70
    64
 62
     7
  6
CONTINUOUS
  0
LAYER
  2
17
 70
    64
 62
     7
  6
CONTINUOUS
  0
LAYER
  2
18
 70
    64
 62
     7
  6
CONTINUOUS
  0
LAYER
  2
19
 70
    64
 62
     7
  6
CONTINUOUS
  0
LAYER
  2
20
 70
    64
 62
     7
  6
CONTINUOUS
  0
LAYER
  2
21
 70
    64
 62
     7
  6
CONTINUOUS
  0
LAYER
  2
22
 70
    64
 62
     7
  6
CONTINUOUS
  0
LAYER
  2
23
 70
    64
 62
     7
  6
CONTINUOUS
  0
LAYER
  2
24
 70
    64
 62
     7
  6
CONTINUOUS
  0
LAYER
  2
25
 70
    64
 62
     7
  6
CONTINUOUS
  0
LAYER
  2
26
 70
    64
 62
     7
  6
CONTINUOUS
  0
LAYER
  2
27
 70
    64
 62
     7
  6
CONTINUOUS
  0
LAYER
  2
28
 70
    64
 62
     7
  6
CONTINUOUS
  0
LAYER
  2
29
 70
    64
 62
     7
  6
CONTINUOUS
  0
LAYER
  2
30
 70
    64
 62
     7
  6
CONTINUOUS
  0
LAYER
  2
31
 70
    64
 62
     7
  6
CONTINUOUS
  0
LAYER
  2
          
 70
    64
 62
     7
  6
CONTINUOUS
  0
LAYER
  2
33
 70
    64
 62
     7
  6
CONTINUOUS
  0
LAYER
  2
34
 70
    64
 62
     7
  6
CONTINUOUS
  0
LAYER
  2
35
 70
    64
 62
     7
  6
CONTINUOUS
  0
LAYER
  2
36
 70
    64
 62
     7
  6
CONTINUOUS
  0
LAYER
  2
37
 70
    64
 62
     7
  6
CONTINUOUS
  0
LAYER
  2
38
 70
    64
 62
     7
  6
CONTINUOUS
  0
LAYER
  2
39
 70
    64
 62
     7
  6
CONTINUOUS
  0
LAYER
  2
40
 70
    64
 62
     7
  6
CONTINUOUS
  0
LAYER
  2
41
 70
    64
 62
     7
  6
CONTINUOUS
  0
LAYER
  2
42
 70
    64
 62
     7
  6
CONTINUOUS
  0
LAYER
  2
43
 70
    64
 62
     7
  6
CONTINUOUS
  0
LAYER
  2
44
 70
    64
 62
     7
  6
CONTINUOUS
  0
LAYER
  2
45
 70
    64
 62
     7
  6
CONTINUOUS
  0
LAYER
  2
46
 70
    64
 62
     7
  6
CONTINUOUS
  0
LAYER
  2
47
 70
    64
 62
     7
  6
CONTINUOUS
  0
LAYER
  2
          
 70
    64
 62
     7
  6
CONTINUOUS
  0
LAYER
  2
49
 70
    64
 62
     7
  6
CONTINUOUS
  0
LAYER
  2
50
 70
    64
 62
     7
  6
CONTINUOUS
  0
LAYER
  2
51
 70
    64
 62
     7
  6
CONTINUOUS
  0
LAYER
  2
52
 70
    64
 62
     7
  6
CONTINUOUS
  0
LAYER
  2
53
 70
    64
 62
     7
  6
CONTINUOUS
  0
LAYER
  2
54
 70
    64
 62
     7
  6
CONTINUOUS
  0
LAYER
  2
55
 70
    64
 62
     7
  6
CONTINUOUS
  0
LAYER
  2
56
 70
    64
 62
     7
  6
CONTINUOUS
  0
LAYER
  2
57
 70
    64
 62
     7
  6
CONTINUOUS
  0
LAYER
  2
58
 70
    64
 62
     7
  6
CONTINUOUS
  0
LAYER
  2
59
 70
    64
 62
     7
  6
CONTINUOUS
  0
LAYER
  2
60
 70
    64
 62
     7
  6
CONTINUOUS
  0
LAYER
  2
61
 70
    64
 62
     7
  6
CONTINUOUS
  0
LAYER
  2
62
 70
    64
 62
     7
  6
CONTINUOUS
  0
LAYER
  2
63
 70
    64
 62
     7
  6
CONTINUOUS
  0
LAYER
  2
          
 70
    64
 62
     7
  6
CONTINUOUS
  0
LAYER
  2
65
 70
    64
 62
     7
  6
CONTINUOUS
  0
LAYER
  2
66
 70
    64
 62
     7
  6
CONTINUOUS
  0
LAYER
  2
67
 70
    64
 62
     7
  6
CONTINUOUS
  0
LAYER
  2
68
 70
    64
 62
     7
  6
CONTINUOUS
  0
LAYER
  2
69
 70
    64
 62
     7
  6
CONTINUOUS
  0
LAYER
  2
70
 70
    64
 62
     7
  6
CONTINUOUS
  0
LAYER
  2
71
 70
    64
 62
     7
  6
CONTINUOUS
  0
LAYER
  2
72
 70
    64
 62
     7
  6
CONTINUOUS
  0
LAYER
  2
73
 70
    64
 62
     7
  6
CONTINUOUS
  0
LAYER
  2
74
 70
    64
 62
     7
  6
CONTINUOUS
  0
LAYER
  2
75
 70
    64
 62
     7
  6
CONTINUOUS
  0
LAYER
  2
76
 70
    64
 62
     7
  6
CONTINUOUS
  0
LAYER
  2
77
 70
    64
 62
     7
  6
CONTINUOUS
  0
LAYER
  2
78
 70
    64
 62
     7
  6
CONTINUOUS
  0
LAYER
  2
79
 70
    64
 62
     7
  6
CONTINUOUS
  0
LAYER
  2
          
 70
    64
 62
     7
  6
CONTINUOUS
  0
LAYER
  2
81
 70
    64
 62
     7
  6
CONTINUOUS
  0
LAYER
  2
82
 70
    64
 62
     7
  6
CONTINUOUS
  0
LAYER
  2
83
 70
    64
 62
     7
  6
CONTINUOUS
  0
LAYER
  2
84
 70
    64
 62
     7
  6
CONTINUOUS
  0
LAYER
  2
85
 70
    64
 62
     7
  6
CONTINUOUS
  0
LAYER
  2
86
 70
    64
 62
     7
  6
CONTINUOUS
  0
LAYER
  2
87
 70
    64
 62
     7
  6
CONTINUOUS
  0
LAYER
  2
88
 70
    64
 62
     7
  6
CONTINUOUS
  0
LAYER
  2
89
 70
    64
 62
     7
  6
CONTINUOUS
  0
LAYER
  2
90
 70
    64
 62
     7
  6
CONTINUOUS
  0
LAYER
  2
91
 70
    64
 62
     7
  6
CONTINUOUS
  0
LAYER
  2
92
 70
    64
 62
     7
  6
CONTINUOUS
  0
LAYER
  2
93
 70
    64
 62
     7
  6
CONTINUOUS
  0
LAYER
  2
94
 70
    64
 62
     7
  6
CONTINUOUS
  0
LAYER
  2
95
 70
    64
 62
     7
  6
CONTINUOUS
  0
LAYER
  2
          
 70
    64
 62
     7
  6
CONTINUOUS
  0
LAYER
  2
97
 70
    64
 62
     7
  6
CONTINUOUS
  0
LAYER
  2
98
 70
    64
 62
     7
  6
CONTINUOUS
  0
LAYER
  2
99
 70
    64
 62
     7
  6
CONTINUOUS
  0
LAYER
  2
100
 70
    64
 62
     7
  6
CONTINUOUS
  0
LAYER
  2
101
 70
    64
 62
     7
  6
CONTINUOUS
  0
LAYER
  2
102
 70
    64
 62
     7
  6
CONTINUOUS
  0
LAYER
  2
103
 70
    64
 62
     7
  6
CONTINUOUS
  0
LAYER
  2
104
 70
    64
 62
     7
  6
CONTINUOUS
  0
LAYER
  2
105
 70
    64
 62
     7
  6
CONTINUOUS
  0
LAYER
  2
106
 70
    64
 62
     7
  6
CONTINUOUS
  0
LAYER
  2
107
 70
    64
 62
     7
  6
CONTINUOUS
  0
LAYER
  2
108
 70
    64
 62
     7
  6
CONTINUOUS
  0
LAYER
  2
109
 70
    64
 62
     7
  6
CONTINUOUS
  0
LAYER
  2
110
 70
    64
 62
     7
  6
CONTINUOUS
  0
LAYER
  2
111
 70
    64
 62
     7
  6
CONTINUOUS
  0
LAYER
  2
          
 70
    64
 62
     7
  6
CONTINUOUS
  0
LAYER
  2
113
 70
    64
 62
     7
  6
CONTINUOUS
  0
LAYER
  2
114
 70
    64
 62
     7
  6
CONTINUOUS
  0
LAYER
  2
115
 70
    64
 62
     7
  6
CONTINUOUS
  0
LAYER
  2
116
 70
    64
 62
     7
  6
CONTINUOUS
  0
LAYER
  2
117
 70
    64
 62
     7
  6
CONTINUOUS
  0
LAYER
  2
118
 70
    64
 62
     7
  6
CONTINUOUS
  0
LAYER
  2
119
 70
    64
 62
     7
  6
CONTINUOUS
  0
LAYER
  2
120
 70
    64
 62
     7
  6
CONTINUOUS
  0
LAYER
  2
121
 70
    64
 62
     7
  6
CONTINUOUS
  0
LAYER
  2
122
 70
    64
 62
     7
  6
CONTINUOUS
  0
LAYER
  2
123
 70
    64
 62
     7
  6
CONTINUOUS
  0
LAYER
  2
124
 70
    64
 62
     7
  6
CONTINUOUS
  0
LAYER
  2
125
 70
    64
 62
     7
  6
CONTINUOUS
  0
LAYER
  2
126
 70
    64
 62
     7
  6
CONTINUOUS
  0
LAYER
  2
127
 70
    64
 62
     7
  6
CONTINUOUS
  0
LAYER
  2
          
 70
    64
 62
     7
  6
CONTINUOUS
  0
LAYER
  2
129
 70
    64
 62
     7
  6
CONTINUOUS
  0
LAYER
  2
130
 70
    64
 62
     7
  6
CONTINUOUS
  0
LAYER
  2
131
 70
    64
 62
     7
  6
CONTINUOUS
  0
LAYER
  2
132
 70
    64
 62
     7
  6
CONTINUOUS
  0
LAYER
  2
133
 70
    64
 62
     7
  6
CONTINUOUS
  0
LAYER
  2
134
 70
    64
 62
     7
  6
CONTINUOUS
  0
LAYER
  2
135
 70
    64
 62
     7
  6
CONTINUOUS
  0
LAYER
  2
136
 70
    64
 62
     7
  6
CONTINUOUS
  0
LAYER
  2
137
 70
    64
 62
     7
  6
CONTINUOUS
  0
LAYER
  2
138
 70
    64
 62
     7
  6
CONTINUOUS
  0
LAYER
  2
139
 70
    64
 62
     7
  6
CONTINUOUS
  0
LAYER
  2
140
 70
    64
 62
     7
  6
CONTINUOUS
  0
LAYER
  2
141
 70
    64
 62
     7
  6
CONTINUOUS
  0
LAYER
  2
142
 70
    64
 62
     7
  6
CONTINUOUS
  0
LAYER
  2
143
 70
    64
 62
     7
  6
CONTINUOUS
  0
LAYER
  2
          
 70
    64
 62
     7
  6
CONTINUOUS
  0
LAYER
  2
145
 70
    64
 62
     7
  6
CONTINUOUS
  0
LAYER
  2
146
 70
    64
 62
     7
  6
CONTINUOUS
  0
LAYER
  2
147
 70
    64
 62
     7
  6
CONTINUOUS
  0
LAYER
  2
148
 70
    64
 62
     7
  6
CONTINUOUS
  0
LAYER
  2
149
 70
    64
 62
     7
  6
CONTINUOUS
  0
LAYER
  2
150
 70
    64
 62
     7
  6
CONTINUOUS
  0
LAYER
  2
151
 70
    64
 62
     7
  6
CONTINUOUS
  0
LAYER
  2
152
 70
    64
 62
     7
  6
CONTINUOUS
  0
LAYER
  2
153
 70
    64
 62
     7
  6
CONTINUOUS
  0
LAYER
  2
154
 70
    64
 62
     7
  6
CONTINUOUS
  0
LAYER
  2
155
 70
    64
 62
     7
  6
CONTINUOUS
  0
LAYER
  2
156
 70
    64
 62
     7
  6
CONTINUOUS
  0
LAYER
  2
157
 70
    64
 62
     7
  6
CONTINUOUS
  0
LAYER
  2
158
 70
    64
 62
     7
  6
CONTINUOUS
  0
LAYER
  2
159
 70
    64
 62
     7
  6
CONTINUOUS
  0
LAYER
  2
          
 70
    64
 62
     7
  6
CONTINUOUS
  0
LAYER
  2
161
 70
    64
 62
     7
  6
CONTINUOUS
  0
LAYER
  2
162
 70
    64
 62
     7
  6
CONTINUOUS
  0
LAYER
  2
163
 70
    64
 62
     7
  6
CONTINUOUS
  0
LAYER
  2
164
 70
    64
 62
     7
  6
CONTINUOUS
  0
LAYER
  2
165
 70
    64
 62
     7
  6
CONTINUOUS
  0
LAYER
  2
166
 70
    64
 62
     7
  6
CONTINUOUS
  0
LAYER
  2
167
 70
    64
 62
     7
  6
CONTINUOUS
  0
LAYER
  2
168
 70
    64
 62
     7
  6
CONTINUOUS
  0
LAYER
  2
169
 70
    64
 62
     7
  6
CONTINUOUS
  0
LAYER
  2
170
 70
    64
 62
     7
  6
CONTINUOUS
  0
LAYER
  2
171
 70
    64
 62
     7
  6
CONTINUOUS
  0
LAYER
  2
172
 70
    64
 62
     7
  6
CONTINUOUS
  0
LAYER
  2
173
 70
    64
 62
     7
  6
CONTINUOUS
  0
LAYER
  2
174
 70
    64
 62
     7
  6
CONTINUOUS
  0
LAYER
  2
175
 70
    64
 62
     7
  6
CONTINUOUS
  0
LAYER
  2
176
 70
    64
 62
     7
  6
CONTINUOUS
  0
LAYER
  2
177
 70
    64
 62
     7
  6
CONTINUOUS
  0
LAYER
  2
178
 70
    64
 62
     7
  6
CONTINUOUS
  0
LAYER
  2
179
 70
    64
 62
     7
  6
CONTINUOUS
  0
LAYER
  2
180
 70
    64
 62
     7
  6
CONTINUOUS
  0
LAYER
  2
181
 70
    64
 62
     7
  6
CONTINUOUS
  0
LAYER
  2
182
 70
    64
 62
     7
  6
CONTINUOUS
  0
LAYER
  2
183
 70
    64
 62
     7
  6
CONTINUOUS
  0
LAYER
  2
184
 70
    64
 62
     7
  6
CONTINUOUS
  0
LAYER
  2
185
 70
    64
 62
     7
  6
CONTINUOUS
  0
LAYER
  2
186
 70
    64
 62
     7
  6
CONTINUOUS
  0
LAYER
  2
187
 70
    64
 62
     7
  6
CONTINUOUS
  0
LAYER
  2
188
 70
    64
 62
     7
  6
CONTINUOUS
  0
LAYER
  2
189
 70
    64
 62
     7
  6
CONTINUOUS
  0
LAYER
  2
190
 70
    64
 62
     7
  6
CONTINUOUS
  0
LAYER
  2
191
 70
    64
 62
     7
  6
CONTINUOUS
  0
LAYER
  2
192
 70
    64
 62
     7
  6
CONTINUOUS
  0
LAYER
  2
193
 70
    64
 62
     7
  6
CONTINUOUS
  0
LAYER
  2
194
 70
    64
 62
     7
  6
CONTINUOUS
  0
LAYER
  2
195
 70
    64
 62
     7
  6
CONTINUOUS
  0
LAYER
  2
196
 70
    64
 62
     7
  6
CONTINUOUS
  0
LAYER
  2
197
 70
    64
 62
     7
  6
CONTINUOUS
  0
LAYER
  2
198
 70
    64
 62
     7
  6
CONTINUOUS
  0
LAYER
  2
199
 70
    64
 62
     7
  6
CONTINUOUS
  0
LAYER
  2
200
 70
    64
 62
     7
  6
CONTINUOUS
  0
LAYER
  2
201
 70
    64
 62
     7
  6
CONTINUOUS
  0
LAYER
  2
202
 70
    64
 62
     7
  6
CONTINUOUS
  0
LAYER
  2
203
 70
    64
 62
     7
  6
CONTINUOUS
  0
LAYER
  2
204
 70
    64
 62
     7
  6
CONTINUOUS
  0
LAYER
  2
205
 70
    64
 62
     7
  6
CONTINUOUS
  0
LAYER
  2
206
 70
    64
 62
     7
  6
CONTINUOUS
  0
LAYER
  2
207
 70
    64
 62
     7
  6
CONTINUOUS
  0
LAYER
  2
208
 70
    64
 62
     7
  6
CONTINUOUS
  0
LAYER
  2
209
 70
    64
 62
     7
  6
CONTINUOUS
  0
LAYER
  2
210
 70
    64
 62
     7
  6
CONTINUOUS
  0
LAYER
  2
211
 70
    64
 62
     7
  6
CONTINUOUS
  0
LAYER
  2
212
 70
    64
 62
     7
  6
CONTINUOUS
  0
LAYER
  2
213
 70
    64
 62
     7
  6
CONTINUOUS
  0
LAYER
  2
214
 70
    64
 62
     7
  6
CONTINUOUS
  0
LAYER
  2
215
 70
    64
 62
     7
  6
CONTINUOUS
  0
LAYER
  2
216
 70
    64
 62
     7
  6
CONTINUOUS
  0
LAYER
  2
217
 70
    64
 62
     7
  6
CONTINUOUS
  0
LAYER
  2
218
 70
    64
 62
     7
  6
CONTINUOUS
  0
LAYER
  2
219
 70
    64
 62
     7
  6
CONTINUOUS
  0
LAYER
  2
220
 70
    64
 62
     7
  6
CONTINUOUS
  0
LAYER
  2
221
 70
    64
 62
     7
  6
CONTINUOUS
  0
LAYER
  2
222
 70
    64
 62
     7
  6
CONTINUOUS
  0
LAYER
  2
223
 70
    64
 62
     7
  6
CONTINUOUS
  0
LAYER
  2
224
 70
    64
 62
     7
  6
CONTINUOUS
  0
LAYER
  2
225
 70
    64
 62
     7
  6
CONTINUOUS
  0
LAYER
  2
226
 70
    64
 62
     7
  6
CONTINUOUS
  0
LAYER
  2
227
 70
    64
 62
     7
  6
CONTINUOUS
  0
LAYER
  2
228
 70
    64
 62
     7
  6
CONTINUOUS
  0
LAYER
  2
229
 70
    64
 62
     7
  6
CONTINUOUS
  0
LAYER
  2
230
 70
    64
 62
     7
  6
CONTINUOUS
  0
LAYER
  2
231
 70
    64
 62
     7
  6
CONTINUOUS
  0
LAYER
  2
232
 70
    64
 62
     7
  6
CONTINUOUS
  0
LAYER
  2
233
 70
    64
 62
     7
  6
CONTINUOUS
  0
LAYER
  2
234
 70
    64
 62
     7
  6
CONTINUOUS
  0
LAYER
  2
235
 70
    64
 62
     7
  6
CONTINUOUS
  0
LAYER
  2
236
 70
    64
 62
     7
  6
CONTINUOUS
  0
LAYER
  2
237
 70
    64
 62
     7
  6
CONTINUOUS
  0
LAYER
  2
238
 70
    64
 62
     7
  6
CONTINUOUS
  0
LAYER
  2
239
 70
    64
 62
     7
  6
CONTINUOUS
  0
LAYER
  2
240
 70
    64
 62
     7
  6
CONTINUOUS
  0
LAYER
  2
241
 70
    64
 62
     7
  6
CONTINUOUS
  0
LAYER
  2
242
 70
    64
 62
     7
  6
CONTINUOUS
  0
LAYER
  2
243
 70
    64
 62
     7
  6
CONTINUOUS
  0
LAYER
  2
244
 70
    64
 62
     7
  6
CONTINUOUS
  0
LAYER
  2
245
 70
    64
 62
     7
  6
CONTINUOUS
  0
LAYER
  2
246
 70
    64
 62
     7
  6
CONTINUOUS
  0
LAYER
  2
247
 70
    64
 62
     7
  6
CONTINUOUS
  0
LAYER
  2
248
 70
    64
 62
     7
  6
CONTINUOUS
  0
LAYER
  2
249
 70
    64
 62
     7
  6
CONTINUOUS
  0
LAYER
  2
250
 70
    64
 62
     7
  6
CONTINUOUS
  0
LAYER
  2
251
 70
    64
 62
     7
  6
CONTINUOUS
  0
LAYER
  2
252
 70
    64
 62
     7
  6
CONTINUOUS
  0
LAYER
  2
253
 70
    64
 62
     7
  6
CONTINUOUS
  0
LAYER
  2
254
 70
    64
 62
     7
  6
CONTINUOUS
  0
LAYER
  2
255
 70
    64
 62
     7
  6
CONTINUOUS
  0
ENDTAB
  0
TABLE
  2
STYLE
 70
     2
  0
STYLE
  2
STANDARD
 70
    64
 40
0.0
 41
1.0
 50
0.0
 71
     0
 42
3.000000
  3
TXT
  4
BIGFONT
  0
ENDTAB
  0
ENDSEC
  0
SECTION
  2
BLOCKS
  0
BLOCK
  8
0
  2
CADWIN-G0
 70
    0
 10
0.0
 20
0.0
  0
LINE
  8
208
  6
CONTINUOUS
 62
     7
 10
-280.00001700000058
 20
-182.00002599999993
 11
-321.95060409816307
 21
-135.89595383025119
  0
LINE
  8
208
  6
CONTINUOUS
 62
     7
 10
-280.00001700000058
 20
-182.00002599999993
 11
-287.56779447356911
 21
-169.04901275351807
  0
LINE
  8
208
  6
CONTINUOUS
 62
     7
 10
-280.00001700000058
 20
-182.00002599999993
 11
-292.18117738773338
 21
-173.24677908195119
  0
LINE
  8
208
  6
CONTINUOUS
 62
     7
 10
-321.95060409816307
 20
-135.89595383025119
 11
-494.75060409816308
 21
-135.89595383025119
  0
TEXT
  8
208
  6
CONTINUOUS
 62
     56
 10
-494.75060409816308
 20
-135.89595383025119
 11
-321.95060409816307
 21
-135.89595383025119
 40
 18
 41
 0.8
  1
Ｍ１２×１１０Ｌ×４箇所
 50
 0
 72
  5
  0
ENDBLK
  8
0
  0
ENDSEC
  0
SECTION
  2
ENTITIES
  0
POINT
  8
0
  6
CONTINUOUS
 62
     7
 10
 257.59789270211229
 20
 343.40188383045518
  0
LINE
  8
85
  6
CONTINUOUS
 62
     4
 10
-32.833428297888531
 20
 491.50952383045501
 11
-32.833428297888531
 21
 488.82395283045497
  0
LINE
  8
85
  6
CONTINUOUS
 62
     4
 10
-24.402077297888809
 20
 627.40189183045504
 11
-22.402128297888794
 21
 625.40189883045491
  0
LINE
  8
85
  6
CONTINUOUS
 62
     4
 10
 46.597891702111156
 20
 449.40189383045498
 11
 76.597882702111292
 21
 449.40189383045498
  0
LINE
  8
85
  6
CONTINUOUS
 62
     4
 10
 76.597882702111292
 20
 433.40185683045496
 11
 92.597918702111201
 21
 433.40185683045496
  0
LINE
  8
85
  6
CONTINUOUS
 62
     4
 10
 92.597918702111201
 20
 433.40185683045496
 11
 92.597918702111201
 21
 343.40188383045501
  0
LINE
  8
85
  6
CONTINUOUS
 62
     4
 10
-207.40208229788823
 20
 433.40185683045496
 11
-191.40213429788855
 21
 433.40185683045496
  0
LINE
  8
85
  6
CONTINUOUS
 62
     4
 10
-191.40213429788855
 20
 433.40185683045496
 11
 76.597882702111292
 21
 433.40185683045496
  0
LINE
  8
85
  6
CONTINUOUS
 62
     4
 10
-178.2396402978884
 20
 424.40186383045494
 11
 63.739952702111168
 21
 424.40186383045494
  0
LINE
  8
85
  6
CONTINUOUS
 62
     4
 10
-207.40208229788823
 20
 433.40185683045496
 11
-207.40208229788823
 21
 343.40188383045501
  0
ARC
  8
85
  6
CONTINUOUS
 62
     4
 10
 63.583861702111335
 20
 410.40190983045494
 40
 13.999998999999999
 50
 5.0000022281692411
 51
 90.000001718873406
  0
ARC
  8
85
  6
CONTINUOUS
 62
     4
 10
-178.48024329788859
 20
 410.40190983045494
 40
 13.999998999999999
 50
 90.000001718873406
 51
 175.41329171707366
  0
LINE
  8
85
  6
CONTINUOUS
 62
     4
 10
-178.48024329788859
 20
 424.40186383045494
 11
-178.2396402978884
 21
 424.40186383045494
  0
LINE
  8
85
  6
CONTINUOUS
 62
     4
 10
 75.859860702111291
 20
 449.40189383045498
 11
 77.597901702111358
 21
 449.40189383045498
  0
LINE
  8
85
  6
CONTINUOUS
 62
     4
 10
 77.597901702111358
 20
 449.40189383045498
 11
 77.597901702111358
 21
 433.40185683045496
  0
LINE
  8
85
  6
CONTINUOUS
 62
     4
 10
-192.40210829788884
 20
 433.40185683045496
 11
-192.40210829788884
 21
 449.40189383045498
  0
LINE
  8
85
  6
CONTINUOUS
 62
     4
 10
-192.40210829788884
 20
 449.40189383045498
 11
-162.04338229788846
 21
 449.40189383045498
  0
LINE
  8
85
  6
CONTINUOUS
 62
     4
 10
-161.40214229788853
 20
 449.40189383045498
 11
-163.24409629788897
 21
 449.40189383045498
  0
LINE
  8
85
  6
CENTER
 62
     7
 10
-46.40213929788888
 20
 445.67488883045502
 11
-46.40213929788888
 21
 399.08686183045501
  0
LINE
  8
85
  6
CONTINUOUS
 62
     4
 10
-66.402118297888592
 20
 433.40185683045496
 11
-66.402118297888592
 21
 469.40187283045486
  0
LINE
  8
85
  6
CONTINUOUS
 62
     4
 10
-66.402118297888592
 20
 469.40187283045486
 11
-26.40211529788894
 21
 469.40187283045486
  0
LINE
  8
85
  6
CONTINUOUS
 62
     4
 10
-26.40211529788894
 20
 469.40187283045486
 11
-26.40211529788894
 21
 433.40185683045496
  0
ARC
  8
85
  6
CONTINUOUS
 62
     4
 10
-135.40209429788865
 20
 468.40189883045497
 40
 6.9999989999999999
 50
 90.000001718873406
 51
 180.00000286478902
  0
LINE
  8
85
  6
CONTINUOUS
 62
     4
 10
-135.40209429788865
 20
 475.40189783045497
 11
-70.402105297888738
 21
 475.40189783045497
  0
LINE
  8
85
  6
CONTINUOUS
 62
     4
 10
-142.40209329788831
 20
 433.40185683045496
 11
-142.40209329788831
 21
 468.40189883045497
  0
LINE
  8
85
  6
CONTINUOUS
 62
     4
 10
-176.90210329788897
 20
 449.78087083045494
 11
-176.90210329788897
 21
 471.40191083045499
  0
LINE
  8
85
  6
CONTINUOUS
 62
     4
 10
-176.90210329788897
 20
 471.40191083045499
 11
-161.40214229788853
 21
 471.40191083045499
  0
LINE
  8
85
  6
CONTINUOUS
 62
     4
 10
-161.40214229788853
 20
 471.40191083045499
 11
-161.40214229788853
 21
 449.40189383045498
  0
LINE
  8
85
  6
CONTINUOUS
 62
     4
 10
 16.136669702111249
 20
 497.708958830455
 11
-137.83341929788821
 21
 474.9660928304549
  0
LINE
  8
85
  6
CONTINUOUS
 62
     4
 10
 27.597886702111282
 20
 487.81631583045487
 11
 27.597886702111282
 21
 433.40185683045496
  0
LINE
  8
85
  6
CONTINUOUS
 62
     4
 10
-70.402105297888738
 20
 475.40189783045497
 11
-64.402081297888799
 21
 469.40187283045486
  0
LINE
  8
85
  6
CONTINUOUS
 62
     4
 10
-70.124472297888133
 20
 475.12422083045487
 11
-70.402105297888738
 21
 475.40189783045497
  0
LINE
  8
85
  6
CONTINUOUS
 62
     4
 10
-95.402091297888546
 20
 475.40189783045497
 11
-125.40208229788823
 21
 476.80233183045488
  0
LINE
  8
85
  6
CONTINUOUS
 62
     4
 10
-35.809212297888735
 20
 478.809013830455
 11
-26.40211529788894
 21
 469.40187283045486
  0
LINE
  8
85
  6
CONTINUOUS
 62
     4
 10
-36.373115297888944
 20
 478.77676783045501
 11
-36.373115297888944
 21
 469.40187283045486
  0
LINE
  8
85
  6
CONTINUOUS
 62
     4
 10
-36.373115297888944
 20
 475.40185383045497
 11
-56.402106297888167
 21
 475.40185383045497
  0
LINE
  8
85
  6
CONTINUOUS
 62
     4
 10
-58.511284297888778
 20
 477.5110308304549
 11
-56.402106297888167
 21
 475.40185383045497
  0
ARC
  8
85
  6
CONTINUOUS
 62
     4
 10
-35.833440297888501
 20
 488.82395283045497
 40
 10.000012
 50
-86.727772497403251
 51
 0
  0
LINE
  8
85
  6
CONTINUOUS
 62
     4
 10
-95.402091297888546
 20
 475.40189783045497
 11
-35.262583297888796
 21
 478.840240830455
  0
LINE
  8
85
  6
CONTINUOUS
 62
     4
 10
-161.40214229788853
 20
 493.40188383045501
 11
-161.40214229788853
 21
 471.40191083045499
  0
ARC
  8
85
  6
CONTINUOUS
 62
     4
 10
 17.597918702111201
 20
 487.81631583045487
 40
 10.000012
 50
 0
 51
 98.402382664130286
  0
LINE
  8
85
  6
CONTINUOUS
 62
     4
 10
-24.402077297888809
 20
 627.40189183045504
 11
-24.402077297888809
 21
 628.40191083045488
  0
LINE
  8
85
  6
CONTINUOUS
 62
     4
 10
-24.402077297888809
 20
 628.40191083045488
 11
-184.40209029788821
 21
 628.40191083045488
  0
LINE
  8
85
  6
CONTINUOUS
 62
     4
 10
-175.40209729788876
 20
 508.76156683045491
 11
-175.40209729788876
 21
 483.40191683045487
  0
LINE
  8
85
  6
CONTINUOUS
 62
     4
 10
-175.40209729788876
 20
 483.40191683045487
 11
-161.40214229788853
 21
 483.40191683045487
  0
LINE
  8
85
  6
CONTINUOUS
 62
     4
 10
-163.40209229788888
 20
 483.40191683045487
 11
-167.40212329788847
 21
 475.40185383045497
  0
LINE
  8
85
  6
CONTINUOUS
 62
     4
 10
-167.40212329788847
 20
 475.40185383045497
 11
-167.40212329788847
 21
 471.40191083045499
  0
LINE
  8
85
  6
CONTINUOUS
 62
     4
 10
-167.40212329788847
 20
 475.40185383045497
 11
-161.40214229788853
 21
 475.40185383045497
  0
ARC
  8
85
  6
CONTINUOUS
 62
     4
 10
-182.40209629788842
 20
 632.40189783045503
 40
 1.999994
 50
 90.000001718873406
 51
 180.00000286478902
  0
LINE
  8
85
  6
CONTINUOUS
 62
     4
 10
-184.40209029788821
 20
 628.40191083045488
 11
-184.40209029788821
 21
 632.40189783045503
  0
ARC
  8
85
  6
CONTINUOUS
 62
     4
 10
-26.40211529788894
 20
 632.40189783045503
 40
 1.999994
 50
 0
 51
 90.000001718873406
  0
LINE
  8
85
  6
CONTINUOUS
 62
     4
 10
-182.40209629788842
 20
 634.40189183045504
 11
-26.40211529788894
 21
 634.40189183045504
  0
LINE
  8
85
  6
CONTINUOUS
 62
     4
 10
-24.402077297888809
 20
 632.40189783045503
 11
-24.402077297888809
 21
 628.40191083045488
  0
LINE
  8
85
  6
CONTINUOUS
 62
     4
 10
-116.40208929788876
 20
 634.40189183045504
 11
-114.40209529788808
 21
 638.40192283045508
  0
LINE
  8
85
  6
CONTINUOUS
 62
     4
 10
-114.40209529788808
 20
 638.40192283045508
 11
-90.402129297888678
 21
 638.40192283045508
  0
LINE
  8
85
  6
CONTINUOUS
 62
     4
 10
-90.402129297888678
 20
 638.40192283045508
 11
-88.402136297888319
 21
 634.40189183045504
  0
LINE
  8
85
  6
CONTINUOUS
 62
     4
 10
-109.40209029788821
 20
 638.40192283045508
 11
-109.40209029788821
 21
 642.40186583045488
  0
LINE
  8
85
  6
CONTINUOUS
 62
     4
 10
-109.40209029788821
 20
 642.40186583045488
 11
-95.402091297888546
 21
 642.40186583045488
  0
LINE
  8
85
  6
CONTINUOUS
 62
     4
 10
-95.402091297888546
 20
 642.40186583045488
 11
-95.402091297888546
 21
 638.40192283045508
  0
LINE
  8
85
  6
CONTINUOUS
 62
     4
 10
-107.40209629788842
 20
 642.40186583045488
 11
-107.40209629788842
 21
 648.40189083045493
  0
LINE
  8
85
  6
CONTINUOUS
 62
     4
 10
-107.40209629788842
 20
 648.40189083045493
 11
-97.402128297888339
 21
 648.40189083045493
  0
LINE
  8
85
  6
CONTINUOUS
 62
     4
 10
-97.402128297888339
 20
 648.40189083045493
 11
-97.402128297888339
 21
 642.40186583045488
  0
ARC
  8
85
  6
CONTINUOUS
 62
     4
 10
-24.402077297888809
 20
 638.50570283045499
 40
 1.999994
 50
 0
 51
 86.947119241368199
  0
LINE
  8
85
  6
CONTINUOUS
 62
     4
 10
-24.295595297888667
 20
 640.50290583045489
 11
-97.402128297888339
 21
 644.40190383045501
  0
LINE
  8
85
  6
CONTINUOUS
 62
     4
 10
-22.402128297888794
 20
 625.40189883045491
 11
-22.402128297888794
 21
 638.50570283045499
  0
ARC
  8
85
  6
CONTINUOUS
 62
     4
 10
-179.40212829788834
 20
 638.50707583045505
 40
 1.999994
 50
 93.094059809028067
 51
 180.00000286478902
  0
LINE
  8
85
  6
CONTINUOUS
 62
     4
 10
-179.51007229788866
 20
 640.50419083045495
 11
-107.40209629788842
 21
 644.40190383045501
  0
LINE
  8
85
  6
CONTINUOUS
 62
     4
 10
-181.40207729788835
 20
 634.40189183045504
 11
-181.40207729788835
 21
 638.50707583045505
  0
ARC
  8
85
  6
CONTINUOUS
 62
     4
 10
-192.40210829788884
 20
 618.40189883045491
 40
 1.999994
 50
 90.000001718873406
 51
 180.00000286478902
  0
LINE
  8
85
  6
CONTINUOUS
 62
     4
 10
-194.40210229788863
 20
 618.40189883045491
 11
-194.40210229788863
 21
 570.40192183045497
  0
LINE
  8
85
  6
CONTINUOUS
 62
     4
 10
-194.40210229788863
 20
 610.40188083045496
 11
-246.40211029788861
 21
 610.40188083045496
  0
ARC
  8
85
  6
CONTINUOUS
 62
     4
 10
-192.40210829788884
 20
 570.40192183045497
 40
 1.999994
 50
 180.00000286478902
 51
-90.000001557275667
  0
LINE
  8
85
  6
CONTINUOUS
 62
     4
 10
-194.40210229788863
 20
 578.40185183045492
 11
-246.40211029788861
 21
 578.40185183045492
  0
LINE
  8
85
  6
CONTINUOUS
 62
     4
 10
-246.40211029788861
 20
 613.40189383045504
 11
-276.40210129788829
 21
 618.40185483045502
  0
LINE
  8
85
  6
CONTINUOUS
 62
     4
 10
-246.40211029788861
 20
 610.40188083045496
 11
-246.40211029788861
 21
 613.40189383045504
  0
LINE
  8
85
  6
CONTINUOUS
 62
     4
 10
-192.40210829788884
 20
 620.40189283045493
 11
-184.40209029788821
 21
 620.40189283045493
  0
LINE
  8
85
  6
CONTINUOUS
 62
     4
 10
-192.40210829788884
 20
 568.40188383045506
 11
-184.40209029788821
 21
 568.40188383045506
  0
LINE
  8
85
  6
CONTINUOUS
 62
     4
 10
-184.40209029788821
 20
 628.40191083045488
 11
-184.40209029788821
 21
 618.40185483045502
  0
LINE
  8
85
  6
CONTINUOUS
 62
     4
 10
-246.40211029788861
 20
 612.35049383045498
 11
-246.33411929788872
 21
 575.40188383045506
  0
LINE
  8
85
  6
CONTINUOUS
 62
     4
 10
-246.33411929788872
 20
 575.40188383045506
 11
-276.40210129788829
 21
 570.40192183045497
  0
LINE
  8
85
  6
CONTINUOUS
 62
     4
 10
-276.40210129788829
 20
 618.40185483045502
 11
-276.40210129788829
 21
 570.40192183045497
  0
LINE
  8
85
  6
CONTINUOUS
 62
     4
 10
-276.40210129788829
 20
 618.40185483045502
 11
-304.40209929788853
 21
 618.40185483045502
  0
LINE
  8
85
  6
CONTINUOUS
 62
     4
 10
-304.40209929788853
 20
 618.40185483045502
 11
-304.40209929788853
 21
 570.40192183045497
  0
LINE
  8
85
  6
CONTINUOUS
 62
     4
 10
-304.40209929788853
 20
 570.40192183045497
 11
-276.40210129788829
 21
 570.40192183045497
  0
LINE
  8
85
  6
CONTINUOUS
 62
     4
 10
-273.97210529788845
 20
 594.40188883045494
 11
-278.40209529788808
 21
 594.40188883045494
  0
LINE
  8
85
  6
CONTINUOUS
 62
     4
 10
-188.40207729788835
 20
 568.40188383045506
 11
-188.40207729788835
 21
 561.40188483045495
  0
LINE
  8
85
  6
CONTINUOUS
 62
     4
 10
-184.40209029788821
 20
 532.40186783045488
 11
-183.65179929788883
 21
 528.98793083045507
  0
LINE
  8
85
  6
CONTINUOUS
 62
     4
 10
-183.65179929788883
 20
 528.98793083045507
 11
-182.75502929788854
 21
 525.69318883045503
  0
LINE
  8
85
  6
CONTINUOUS
 62
     4
 10
-182.75502929788854
 20
 525.69318883045503
 11
-181.73149029788874
 21
 522.52361983045489
  0
LINE
  8
85
  6
CONTINUOUS
 62
     4
 10
-181.73149029788874
 20
 522.52361983045489
 11
-180.60084929788809
 21
 519.48516083045502
  0
LINE
  8
85
  6
CONTINUOUS
 62
     4
 10
-180.60084929788809
 20
 519.48516083045502
 11
-179.38294929788844
 21
 516.58378983045486
  0
LINE
  8
85
  6
CONTINUOUS
 62
     4
 10
-179.38294929788844
 20
 516.58378983045486
 11
-178.09732429788892
 21
 513.82544383045501
  0
LINE
  8
85
  6
CONTINUOUS
 62
     4
 10
-178.09732429788892
 20
 513.82544383045501
 11
-176.76386229788841
 21
 511.21601383045498
  0
LINE
  8
85
  6
CONTINUOUS
 62
     4
 10
-176.76386229788841
 20
 511.21601383045498
 11
-175.40209729788876
 21
 508.76156683045491
  0
LINE
  8
85
  6
CONTINUOUS
 62
     4
 10
-175.40209729788876
 20
 508.76156683045491
 11
-173.99532929788893
 21
 506.414088830455
  0
LINE
  8
85
  6
CONTINUOUS
 62
     4
 10
-173.99532929788893
 20
 506.414088830455
 11
-172.51755829788817
 21
 504.147314830455
  0
LINE
  8
85
  6
CONTINUOUS
 62
     4
 10
-172.51755829788817
 20
 504.147314830455
 11
-170.97472029788878
 21
 501.99977883045489
  0
LINE
  8
85
  6
CONTINUOUS
 62
     4
 10
-170.97472029788878
 20
 501.99977883045489
 11
-169.3727942978885
 21
 500.01019383045497
  0
LINE
  8
85
  6
CONTINUOUS
 62
     4
 10
-169.3727942978885
 20
 500.01019383045497
 11
-167.71780429788851
 21
 498.21696383045486
  0
LINE
  8
85
  6
CONTINUOUS
 62
     4
 10
-167.71780429788851
 20
 498.21696383045486
 11
-166.01559729788823
 21
 496.658799830455
  0
LINE
  8
85
  6
CONTINUOUS
 62
     4
 10
-166.01559729788823
 20
 496.658799830455
 11
-164.27224129788829
 21
 495.374282830455
  0
LINE
  8
85
  6
CONTINUOUS
 62
     4
 10
-164.27224129788829
 20
 495.374282830455
 11
-162.49367229788822
 21
 494.40185883045501
  0
LINE
  8
85
  6
CONTINUOUS
 62
     4
 10
-184.40209029788821
 20
 620.40189283045493
 11
-184.40209029788821
 21
 532.40186783045488
  0
LINE
  8
85
  6
CONTINUOUS
 62
     4
 10
-188.40207729788835
 20
 561.40188483045495
 11
-180.40210329788897
 21
 508.40185783045501
  0
LINE
  8
85
  6
CONTINUOUS
 62
     4
 10
-267.25873029788818
 20
 536.28000283045503
 11
-262.67951429788809
 21
 532.40186783045488
  0
LINE
  8
85
  6
CONTINUOUS
 62
     4
 10
-262.67951429788809
 20
 532.40186783045488
 11
-222.42947329788876
 21
 578.40185183045492
  0
LINE
  8
85
  6
CONTINUOUS
 62
     4
 10
-202.40207629788893
 20
 610.40188083045496
 11
-184.40209029788821
 21
 630.97333783045497
  0
LINE
  8
85
  6
CONTINUOUS
 62
     4
 10
-172.49031829788873
 20
 644.58674083045503
 11
-168.50392929788813
 21
 641.09909983045486
  0
LINE
  8
85
  6
CONTINUOUS
 62
     4
 10
-175.89145429788823
 20
 640.69974683045507
 11
-172.49031829788873
 21
 644.58674083045503
  0
ARC
  8
85
  6
CONTINUOUS
 62
     4
 10
-212.63702129788817
 20
 643.51864283045506
 40
 10.000012
 50
 69.081449198728052
 51
 158.62938262586943
  0
LINE
  8
85
  6
CONTINUOUS
 62
     4
 10
-209.06663929788829
 20
 652.85956483045493
 11
-177.08534629788846
 21
 640.63521183045486
  0
LINE
  8
85
  6
CONTINUOUS
 62
     4
 10
-236.33410729788829
 20
 610.40188083045496
 11
-221.9494622978882
 21
 647.16259683045496
  0
ARC
  8
85
  6
CONTINUOUS
 62
     4
 10
-197.78857729788888
 20
 525.72999683045487
 40
 10.000012
 50
-110.9185557962944
 51
-21.370617212532796
  0
LINE
  8
85
  6
CONTINUOUS
 62
     4
 10
-188.47618029788828
 20
 522.08599783045497
 11
-184.40209029788821
 21
 532.4974978304549
  0
LINE
  8
85
  6
CONTINUOUS
 62
     4
 10
-250.28697829788871
 20
 574.74456483045492
 11
-260.11185229788862
 21
 549.6365028304549
  0
LINE
  8
85
  6
CONTINUOUS
 62
     4
 10
-254.36983829788826
 20
 536.65162783045503
 11
-201.35900329788819
 21
 516.389074830455
  0
LINE
  8
85
  6
CONTINUOUS
 62
     4
 10
-230.40207329788882
 20
 578.40185183045492
 11
-267.25873029788818
 21
 536.28000283045503
  0
LINE
  8
85
  6
CONTINUOUS
 62
     4
 10
-258.68253929788807
 20
 553.28922783045505
 11
-259.04202729788813
 21
 552.60790183045492
  0
LINE
  8
85
  6
CONTINUOUS
 62
     4
 10
-259.04202729788813
 20
 552.60790183045492
 11
-259.36218129788813
 21
 551.92750683045506
  0
LINE
  8
85
  6
CONTINUOUS
 62
     4
 10
-259.36218129788813
 20
 551.92750683045506
 11
-259.64526229788862
 21
 551.25167283045494
  0
LINE
  8
85
  6
CONTINUOUS
 62
     4
 10
-259.64526229788862
 20
 551.25167283045494
 11
-259.8933962978881
 21
 550.58407883045493
  0
LINE
  8
85
  6
CONTINUOUS
 62
     4
 10
-259.8933962978881
 20
 550.58407883045493
 11
-260.10888529788826
 21
 549.92826583045508
  0
LINE
  8
85
  6
CONTINUOUS
 62
     4
 10
-260.10888529788826
 20
 549.92826583045508
 11
-260.29394429788863
 21
 549.28791183045496
  0
LINE
  8
85
  6
CONTINUOUS
 62
     4
 10
-260.29394429788863
 20
 549.28791183045496
 11
-260.45083229788816
 21
 548.66664883045496
  0
LINE
  8
85
  6
CONTINUOUS
 62
     4
 10
-260.45083229788816
 20
 548.66664883045496
 11
-260.58167629788841
 21
 548.068018830455
  0
LINE
  8
85
  6
CONTINUOUS
 62
     4
 10
-260.58167629788841
 20
 548.068018830455
 11
-260.69063829788865
 21
 547.48165883045499
  0
LINE
  8
85
  6
CONTINUOUS
 62
     4
 10
-260.69063829788865
 20
 547.48165883045499
 11
-260.77741029788831
 21
 546.89968383045493
  0
LINE
  8
85
  6
CONTINUOUS
 62
     4
 10
-260.77741029788831
 20
 546.89968383045493
 11
-260.83733929788832
 21
 546.32944683045503
  0
LINE
  8
85
  6
CONTINUOUS
 62
     4
 10
-260.83733929788832
 20
 546.32944683045503
 11
-260.86617429788839
 21
 545.77830083045501
  0
LINE
  8
85
  6
CONTINUOUS
 62
     4
 10
-260.86617429788839
 20
 545.77830083045501
 11
-260.85935329788845
 21
 545.25364183045508
  0
LINE
  8
85
  6
CONTINUOUS
 62
     4
 10
-260.85935329788845
 20
 545.25364183045508
 11
-260.81249029788887
 21
 544.76282283045498
  0
LINE
  8
85
  6
CONTINUOUS
 62
     4
 10
-260.81249029788887
 20
 544.76282283045498
 11
-260.72102429788811
 21
 544.31319783045501
  0
LINE
  8
85
  6
CONTINUOUS
 62
     4
 10
-260.72102429788811
 20
 544.31319783045501
 11
-260.5806132978887
 21
 543.91216283045492
  0
LINE
  8
85
  6
CONTINUOUS
 62
     4
 10
-257.37782429788876
 20
 538.46093683045501
 11
-257.26345729788864
 21
 538.29239883045489
  0
LINE
  8
85
  6
CONTINUOUS
 62
     4
 10
-257.26345729788864
 20
 538.29239883045489
 11
-257.05292929788811
 21
 538.10073983045504
  0
LINE
  8
85
  6
CONTINUOUS
 62
     4
 10
-257.05292929788811
 20
 538.10073983045504
 11
-256.75718029788823
 21
 537.88945883045494
  0
LINE
  8
85
  6
CONTINUOUS
 62
     4
 10
-256.75718029788823
 20
 537.88945883045494
 11
-256.38701829788897
 21
 537.66174483045506
  0
LINE
  8
85
  6
CONTINUOUS
 62
     4
 10
-256.38701829788897
 20
 537.66174483045506
 11
-255.95333829788888
 21
 537.42114183045487
  0
LINE
  8
85
  6
CONTINUOUS
 62
     4
 10
-255.95333829788888
 20
 537.42114183045487
 11
-255.46699329788862
 21
 537.17097083045496
  0
LINE
  8
85
  6
CONTINUOUS
 62
     4
 10
-255.46699329788862
 20
 537.17097083045496
 11
-254.93883529788857
 21
 536.91459883045491
  0
LINE
  8
85
  6
CONTINUOUS
 62
     4
 10
-254.93883529788857
 20
 536.91459883045491
 11
-254.37980429788877
 21
 536.65543683045507
  0
LINE
  8
85
  6
CONTINUOUS
 62
     4
 10
-254.37980429788877
 20
 536.65543683045507
 11
-253.78458629788835
 21
 536.39011783045498
  0
LINE
  8
85
  6
CONTINUOUS
 62
     4
 10
-253.78458629788835
 20
 536.39011783045498
 11
-253.14068829788809
 21
 536.11381283045489
  0
LINE
  8
85
  6
CONTINUOUS
 62
     4
 10
-253.14068829788809
 20
 536.11381283045489
 11
-252.4478022978883
 21
 535.82807483045508
  0
LINE
  8
85
  6
CONTINUOUS
 62
     4
 10
-252.4478022978883
 20
 535.82807483045508
 11
-251.70579429788816
 21
 535.53445183045505
  0
LINE
  8
85
  6
CONTINUOUS
 62
     4
 10
-251.70579429788816
 20
 535.53445183045505
 11
-250.91462029788815
 21
 535.23431783045498
  0
LINE
  8
85
  6
CONTINUOUS
 62
     4
 10
-250.91462029788815
 20
 535.23431783045498
 11
-250.07392529788831
 21
 534.92922283045505
  0
LINE
  8
85
  6
CONTINUOUS
 62
     4
 10
-250.07392529788831
 20
 534.92922283045505
 11
-249.18375529788861
 21
 534.62067283045508
  0
LINE
  8
85
  6
CONTINUOUS
 62
     4
 10
-249.18375529788861
 20
 534.62067283045508
 11
-248.24379829788816
 21
 534.31008483045503
  0
LINE
  8
85
  6
CENTER
 62
     7
 10
-218.33412229788883
 20
 551.08884983045505
 11
-230.50917629788819
 21
 519.97469483045506
  0
ARC
  8
85
  6
CONTINUOUS
 62
     4
 10
-204.36123029788814
 20
 350.40188283045489
 40
 6.9999989999999999
 50
-90.000001557275667
 51
-4.5867098402019666
  0
LINE
  8
85
  6
CONTINUOUS
 62
     4
 10
-207.40208229788823
 20
 343.40188383045501
 11
-204.36123029788814
 21
 343.40188383045501
  0
LINE
  8
85
  6
CONTINUOUS
 62
     4
 10
-192.43541729788831
 20
 411.52143283045501
 11
-197.38364429788817
 21
 349.84209883045486
  0
ARC
  8
85
  6
CONTINUOUS
 62
     4
 10
 89.913366702111489
 20
 350.40188283045489
 40
 6.9999989999999999
 50
-174.99999990206419
 51
-90.000001557275667
  0
LINE
  8
85
  6
CONTINUOUS
 62
     4
 10
 77.530574702111153
 20
 411.62206783045502
 11
 82.940031702111355
 21
 349.79182583045502
  0
LINE
  8
85
  6
CONTINUOUS
 62
     4
 10
 92.597918702111201
 20
 343.40188383045501
 11
 89.913366702111489
 21
 343.40188383045501
  0
LINE
  8
85
  6
CENTER
 62
     7
 10
-324.95411129788863
 20
 594.40188883045494
 11
-184.40209029788821
 21
 594.40188883045494
  0
LINE
  8
85
  6
CENTER
 62
     7
 10
 62.097896702111491
 20
 457.54187983045489
 11
 62.097896702111491
 21
 415.36989083045495
  0
LINE
  8
85
  6
CENTER
 62
     7
 10
 52.597918702111215
 20
 438.481857830455
 11
 52.597918702111215
 21
 334.63190783045496
  0
LINE
  8
85
  6
CENTER
 62
     7
 10
-167.40208229788823
 20
 337.49190783045486
 11
-167.40208229788823
 21
 449.78087083045494
  0
CIRCLE
  8
85
  6
CONTINUOUS
 62
     4
 10
-102.40209029788821
 20
 558.40187283045498
 40
 52.000007999999994
  0
LINE
  8
85
  6
CONTINUOUS
 62
     4
 10
-143.38988729788889
 20
 622.40193083045506
 11
-61.414293297888435
 21
 622.40193083045506
  0
ARC
  8
85
  6
CONTINUOUS
 62
     4
 10
-102.40209029788821
 20
 558.40187283045498
 40
 76.000018999999995
 50
 122.63689925931197
 51
 57.363104178434831
  0
ARC
  8
85
  6
CENTER
 62
     7
 10
-102.40209029788821
 20
 558.40187283045498
 40
 38.000009999999996
 50
 160.84529579042172
 51
-157.5588978953941
  0
ARC
  8
85
  6
CENTER
 62
     7
 10
-102.40209029788821
 20
 558.40187283045498
 40
 38.000009999999996
 50
-119.35494808980826
 51
-64.613992181012151
  0
ARC
  8
85
  6
CENTER
 62
     7
 10
-102.40209029788821
 20
 558.40187283045498
 40
 38.000009999999996
 50
-18.987093263565018
 51
 26.692839612621952
  0
ARC
  8
85
  6
CENTER
 62
     7
 10
-102.40209029788821
 20
 558.40187283045498
 40
 38.000009999999996
 50
 67.043050394249079
 51
 112.24655870401529
  0
CIRCLE
  8
85
  6
CONTINUOUS
 62
     4
 10
-140.40210029788886
 20
 558.40187283045498
 40
 5.000006
  0
CIRCLE
  8
85
  6
CONTINUOUS
 62
     4
 10
-102.40209029788821
 20
 520.401862830455
 40
 5.000006
  0
CIRCLE
  8
85
  6
CONTINUOUS
 62
     4
 10
-64.402081297888799
 20
 558.40187283045498
 40
 5.000006
  0
CIRCLE
  8
85
  6
CONTINUOUS
 62
     4
 10
-102.40209029788821
 20
 596.40192683045507
 40
 5.000006
  0
CIRCLE
  8
85
  6
CONTINUOUS
 62
     4
 10
-102.40209029788821
 20
 558.40187283045498
 40
 12.000005
  0
LINE
  8
85
  6
CENTER
 62
     7
 10
-207.76210129788888
 20
 558.40187283045498
 11
 329.46085043992827
 21
 558.40187283045498
  0
LINE
  8
85
  6
CENTER
 62
     7
 10
 348.03382764647074
 20
 558.40187283045498
 11
 381.43457182065401
 21
 558.40187283045498
  0
LINE
  8
85
  6
CENTER
 62
     7
 10
-102.40209029788821
 20
 668.63188683045496
 11
-102.40209029788821
 21
 290.46191783045487
  0
LINE
  8
85
  6
CONTINUOUS
 62
     4
 10
 183.59791170211111
 20
 590.40190183045502
 11
 183.59791170211111
 21
 526.40188783045505
  0
LINE
  8
85
  6
CONTINUOUS
 62
     4
 10
 183.59791170211111
 20
 526.40188783045505
 11
 247.5979257021113
 21
 526.40188783045505
  0
LINE
  8
85
  6
CONTINUOUS
 62
     4
 10
 175.59789370211138
 20
 612.40187483045497
 11
 85.597875702111196
 21
 612.40187483045497
  0
LINE
  8
85
  6
CONTINUOUS
 62
     4
 10
 85.597875702111196
 20
 612.40187483045497
 11
 85.597875702111196
 21
 576.4019028304549
  0
LINE
  8
85
  6
CONTINUOUS
 62
     4
 10
 85.597875702111196
 20
 576.4019028304549
 11
 94.5978687021111
 21
 566.40189083045493
  0
LINE
  8
85
  6
CONTINUOUS
 62
     4
 10
 85.597875702111196
 20
 610.40188083045496
 11
 79.597894702111262
 21
 610.40188083045496
  0
LINE
  8
85
  6
CONTINUOUS
 62
     4
 10
 170.24588570211108
 20
 506.401907830455
 11
 175.59789370211138
 21
 506.401907830455
  0
LINE
  8
85
  6
CONTINUOUS
 62
     4
 10
 165.59788170211141
 20
 506.401907830455
 11
 170.24588570211108
 21
 506.401907830455
  0
LINE
  8
85
  6
CONTINUOUS
 62
     4
 10
 85.597875702111196
 20
 506.401907830455
 11
 95.597931702111055
 21
 506.401907830455
  0
LINE
  8
85
  6
CONTINUOUS
 62
     4
 10
 99.597874702111312
 20
 510.40189483045486
 11
 161.59789470211126
 21
 510.40189483045486
  0
ARC
  8
85
  6
CONTINUOUS
 62
     4
 10
 161.59789470211126
 20
 506.401907830455
 40
 4.0000309999999999
 50
 0
 51
 90.000001718873406
  0
ARC
  8
85
  6
CONTINUOUS
 62
     4
 10
 99.597874702111312
 20
 506.401907830455
 40
 4.0000309999999999
 50
 90.000001718873406
 51
 180.00000286478902
  0
LINE
  8
85
  6
CONTINUOUS
 62
     4
 10
 91.597900702111474
 20
 506.401907830455
 11
 91.597900702111474
 21
 558.40187283045498
  0
LINE
  8
85
  6
CONTINUOUS
 62
     4
 10
 94.5978687021111
 20
 566.40189083045493
 11
 166.59790070211147
 21
 566.40189083045493
  0
LINE
  8
85
  6
CONTINUOUS
 62
     4
 10
 91.597900702111474
 20
 558.40187283045498
 11
 96.710323702111054
 21
 563.51429583045501
  0
LINE
  8
85
  6
CONTINUOUS
 62
     4
 10
 181.59787370211143
 20
 610.40188083045496
 11
 181.59787370211143
 21
 597.40190083045491
  0
LINE
  8
85
  6
CONTINUOUS
 62
     4
 10
 175.59789370211138
 20
 576.4019028304549
 11
 175.59789370211138
 21
 612.40187483045497
  0
LINE
  8
85
  6
CONTINUOUS
 62
     4
 10
 166.59790070211147
 20
 566.40189083045493
 11
 175.59789370211138
 21
 576.4019028304549
  0
LINE
  8
85
  6
CONTINUOUS
 62
     4
 10
 181.59787370211143
 20
 506.401907830455
 11
 173.59794470211136
 21
 506.401907830455
  0
LINE
  8
85
  6
CONTINUOUS
 62
     4
 10
 181.59787370211143
 20
 519.40188783045505
 11
 181.59787370211143
 21
 506.401907830455
  0
LINE
  8
85
  6
CONTINUOUS
 62
     4
 10
 84.597900702111474
 20
 506.401907830455
 11
 92.597918702111201
 21
 506.401907830455
  0
LINE
  8
85
  6
CONTINUOUS
 62
     4
 10
 81.597888702111504
 20
 506.401907830455
 11
 85.545874702111178
 21
 506.401907830455
  0
LINE
  8
85
  6
CONTINUOUS
 62
     4
 10
 56.597902702111242
 20
 506.401907830455
 11
 83.942885702111198
 21
 506.401907830455
  0
LINE
  8
85
  6
CONTINUOUS
 62
     4
 10
 175.59789370211138
 20
 610.40188083045496
 11
 181.59787370211143
 21
 610.40188083045496
  0
ARC
  8
85
  6
CONTINUOUS
 62
     4
 10
 183.59791170211111
 20
 592.40189483045492
 40
 1.999994
 50
 180.00000286478902
 51
-90.000001557275667
  0
LINE
  8
85
  6
CONTINUOUS
 62
     4
 10
 181.59787370211143
 20
 597.40185683045502
 11
 181.59787370211143
 21
 592.40189483045492
  0
LINE
  8
85
  6
CONTINUOUS
 62
     4
 10
 247.5979257021113
 20
 590.40190183045502
 11
 183.59791170211111
 21
 590.40190183045502
  0
ARC
  8
85
  6
CONTINUOUS
 62
     4
 10
 183.59791170211111
 20
 524.40189383045504
 40
 1.999994
 50
 90.000001718873406
 51
 180.00000286478902
  0
LINE
  8
85
  6
CONTINUOUS
 62
     4
 10
 181.59787370211143
 20
 524.40189383045504
 11
 181.59787370211143
 21
 518.71617783045508
  0
LINE
  8
85
  6
CONTINUOUS
 62
     4
 10
 181.59787370211143
 20
 592.40189483045492
 11
 181.59787370211143
 21
 519.40188783045505
  0
LINE
  8
85
  6
CONTINUOUS
 62
     4
 10
 227.59790170211136
 20
 603.40188783045505
 11
 287.59788470211106
 21
 603.40188783045505
  0
LINE
  8
85
  6
CONTINUOUS
 62
     4
 10
 251.59791270211144
 20
 603.40188783045505
 11
 251.59791270211144
 21
 513.40190183045502
  0
LINE
  8
85
  6
CONTINUOUS
 62
     4
 10
 263.59791770211132
 20
 603.40188783045505
 11
 263.59791770211132
 21
 513.40190183045502
  0
LINE
  8
85
  6
CONTINUOUS
 62
     4
 10
 263.59791770211132
 20
 590.40190183045502
 11
 285.59789070211127
 21
 590.40190183045502
  0
LINE
  8
85
  6
CONTINUOUS
 62
     4
 10
 285.59789070211127
 20
 590.40190183045502
 11
 285.59789070211127
 21
 526.40188783045505
  0
LINE
  8
85
  6
CONTINUOUS
 62
     4
 10
 285.59789070211127
 20
 526.40188783045505
 11
 263.59791770211132
 21
 526.40188783045505
  0
LINE
  8
85
  6
CONTINUOUS
 62
     4
 10
 272.59787270211109
 20
 603.40188783045505
 11
 272.59787270211109
 21
 590.40190183045502
  0
LINE
  8
85
  6
CONTINUOUS
 62
     4
 10
 242.59791370211133
 20
 603.40188783045505
 11
 242.59791370211133
 21
 590.40190183045502
  0
LINE
  8
85
  6
CONTINUOUS
 62
     4
 10
 272.59787270211109
 20
 526.40188783045505
 11
 272.59787270211109
 21
 513.40190183045502
  0
LINE
  8
85
  6
CONTINUOUS
 62
     4
 10
 242.59791370211133
 20
 526.40188783045505
 11
 242.59791370211133
 21
 513.40190183045502
  0
LINE
  8
85
  6
CONTINUOUS
 62
     4
 10
 227.59790170211136
 20
 625.40186083045501
 11
 287.59788470211106
 21
 625.40186083045501
  0
LINE
  8
85
  6
CONTINUOUS
 62
     4
 10
 287.59788470211106
 20
 625.40186083045501
 11
 287.59788470211106
 21
 603.40188783045505
  0
LINE
  8
85
  6
CONTINUOUS
 62
     4
 10
 227.59790170211136
 20
 625.40186083045501
 11
 227.59790170211136
 21
 603.40188783045505
  0
LINE
  8
85
  6
CONTINUOUS
 62
     4
 10
 227.59790170211136
 20
 513.40190183045502
 11
 287.59788470211106
 21
 513.40190183045502
  0
LINE
  8
85
  6
CONTINUOUS
 62
     4
 10
 287.59788470211106
 20
 513.40190183045502
 11
 287.59788470211106
 21
 491.40192883045501
  0
LINE
  8
85
  6
CONTINUOUS
 62
     4
 10
 287.59788470211106
 20
 491.40192883045501
 11
 227.59790170211136
 21
 491.40192883045501
  0
LINE
  8
85
  6
CONTINUOUS
 62
     4
 10
 227.59790170211136
 20
 491.40192883045501
 11
 227.59790170211136
 21
 513.40190183045502
  0
LINE
  8
85
  6
CONTINUOUS
 62
     4
 10
 247.5979257021113
 20
 590.40190183045502
 11
 251.59791270211144
 21
 590.40190183045502
  0
LINE
  8
85
  6
CONTINUOUS
 62
     4
 10
 246.25990170211119
 20
 526.40188783045505
 11
 251.59791270211144
 21
 526.40188783045505
  0
LINE
  8
85
  6
CENTER
 62
     7
 10
 257.59789270211149
 20
 748.10377358490564
 11
 257.59789270211149
 21
 343.40188383045518
  0
LINE
  8
85
  6
CONTINUOUS
 62
     4
 10
 79.597894702111262
 20
 613.40189383045504
 11
 79.597894702111262
 21
 506.401907830455
  0
LINE
  8
85
  6
CONTINUOUS
 62
     4
 10
-22.402128297888794
 20
 625.40189883045491
 11
 79.597894702111262
 21
 613.40189383045504
  0
LINE
  8
85
  6
CONTINUOUS
 62
     4
 10
 46.597891702111156
 20
 496.40189683045486
 11
 46.597891702111156
 21
 449.40189383045498
  0
ARC
  8
85
  6
CONTINUOUS
 62
     4
 10
 56.597902702111242
 20
 496.40189683045486
 40
 10.000012
 50
 90.000001718873406
 51
 180.00000286478902
  0
POINT
  8
0
  6
CONTINUOUS
 62
     7
 10
-299.99999600000001
 20
-272
  0
LINE
  8
85
  6
CONTINUOUS
 62
     4
 10
-125.99998499999974
 20
 10.000015000000033
 11
-125.99998499999974
 21
-134.00000499999993
  0
LINE
  8
85
  6
CONTINUOUS
 62
     4
 10
 329.99999599999984
 20
-272.00000000000006
 11
 329.99999599999984
 21
-182.00002599999999
  0
LINE
  8
85
  6
CONTINUOUS
 62
     4
 10
-123.000018
 20
 12.000009000000048
 11
-123.000018
 21
-134.00000499999993
  0
ARC
  8
85
  6
CONTINUOUS
 62
     4
 10
-116.99999300000017
 20
 14.999977000000127
 40
 2.999968
 50
-90.000001557275667
 51
 0
  0
ARC
  8
85
  6
CONTINUOUS
 62
     4
 10
-111.0000119999998
 20
 19.999983000000114
 40
 2.999968
 50
 90.000001718873406
 51
 180.00000286478902
  0
LINE
  8
85
  6
CONTINUOUS
 62
     4
 10
-111.0000119999998
 20
 22.999995000000084
 11
-80.000002000000052
 21
 22.999995000000084
  0
ARC
  8
85
  6
CONTINUOUS
 62
     4
 10
-111.0000119999998
 20
-135.99999800000006
 40
 2.999968
 50
 180.00000286478902
 51
-90.000001557275667
  0
LINE
  8
85
  6
CONTINUOUS
 62
     4
 10
-80.000002000000052
 20
-139.00001000000003
 11
-111.0000119999998
 21
-139.00001000000003
  0
LINE
  8
85
  6
CONTINUOUS
 62
     4
 10
-88.000019999999779
 20
 22.999995000000084
 11
-88.000019999999779
 21
-139.00001000000003
  0
LINE
  8
85
  6
CONTINUOUS
 62
     4
 10
-74.000022000000001
 20
 19.000007999999937
 11
-74.000022000000001
 21
 0.999978000000013
  0
LINE
  8
85
  6
CONTINUOUS
 62
     4
 10
-74.000022000000001
 20
 0.999978000000013
 11
-80.000002000000052
 21
 0.999978000000013
  0
LINE
  8
85
  6
CONTINUOUS
 62
     4
 10
-80.000002000000052
 20
-116.99999299999998
 11
-74.000022000000001
 21
-116.99999299999998
  0
LINE
  8
85
  6
CONTINUOUS
 62
     4
 10
-74.000022000000001
 20
-116.99999299999998
 11
-74.000022000000001
 21
-134.999979
  0
LINE
  8
85
  6
CONTINUOUS
 62
     4
 10
-80.000002000000052
 20
-134.999979
 11
-7.0000400000001832
 21
-134.999979
  0
LINE
  8
85
  6
CONTINUOUS
 62
     4
 10
-7.0000400000001832
 20
-134.999979
 11
-7.0000400000001832
 21
-17.000008000000022
  0
ARC
  8
85
  6
CONTINUOUS
 62
     4
 10
-72.000028000000214
 20
-8.9999889999999567
 40
 7.9999739999999999
 50
 180.00000286478902
 51
-90.000001557275667
  0
LINE
  8
85
  6
CONTINUOUS
 62
     4
 10
-7.0000400000001832
 20
-17.000008000000022
 11
-72.000028000000214
 21
-17.000008000000022
  0
LINE
  8
85
  6
CONTINUOUS
 62
     4
 10
-44.000029999999981
 20
-17.000008000000022
 11
-74.000022000000001
 21
 16.333350000000067
  0
LINE
  8
85
  6
CONTINUOUS
 62
     4
 10
-80.000002000000052
 20
 19.000007999999937
 11
-74.000022000000001
 21
 19.000007999999937
  0
LINE
  8
85
  6
CONTINUOUS
 62
     4
 10
-80.000002000000052
 20
 22.999995000000084
 11
-76.139009000000271
 21
 19.000007999999937
  0
LINE
  8
85
  6
CONTINUOUS
 62
     4
 10
-80.000002000000052
 20
-51.000029999999995
 11
-74.000022000000001
 21
-52.99997900000001
  0
LINE
  8
85
  6
CONTINUOUS
 62
     4
 10
-74.000022000000001
 20
-52.99997900000001
 11
-44.000029999999981
 21
-52.99997900000001
  0
LINE
  8
85
  6
CONTINUOUS
 62
     4
 10
-80.000002000000052
 20
-65.000029000000112
 11
-74.000022000000001
 21
-62.999990999999973
  0
LINE
  8
85
  6
CONTINUOUS
 62
     4
 10
-74.000022000000001
 20
-62.999990999999973
 11
-44.000029999999981
 21
-62.999990999999973
  0
LINE
  8
85
  6
CONTINUOUS
 62
     4
 10
-72.000028000000214
 20
-24.999982000000116
 11
-48.000017000000128
 21
-24.999982000000116
  0
LINE
  8
85
  6
CONTINUOUS
 62
     4
 10
-48.000017000000128
 20
-24.999982000000116
 11
-48.000017000000128
 21
-48.999992000000091
  0
LINE
  8
85
  6
CONTINUOUS
 62
     4
 10
-48.000017000000128
 20
-48.999992000000091
 11
-72.000028000000214
 21
-48.999992000000091
  0
LINE
  8
85
  6
CONTINUOUS
 62
     4
 10
-72.000028000000214
 20
-48.999992000000091
 11
-72.000028000000214
 21
-24.999982000000116
  0
LINE
  8
85
  6
CONTINUOUS
 62
     4
 10
-7.0000400000001832
 20
-17.000008000000022
 11
 1.9999529999997208
 21
-17.000008000000022
  0
LINE
  8
85
  6
CONTINUOUS
 62
     4
 10
 1.9999529999997208
 20
-17.000008000000022
 11
 1.9999529999997208
 21
-134.999979
  0
LINE
  8
85
  6
CONTINUOUS
 62
     4
 10
 1.9999529999997208
 20
-134.999979
 11
-7.0000400000001832
 21
-134.999979
  0
LINE
  8
85
  6
CONTINUOUS
 62
     4
 10
 1.9999529999997208
 20
-17.000008000000022
 11
 9.9999719999997865
 21
-22.999988000000101
  0
LINE
  8
85
  6
CONTINUOUS
 62
     4
 10
 9.9999719999997865
 20
-22.999988000000101
 11
 9.9999719999997865
 21
-128.99999899999995
  0
LINE
  8
85
  6
CONTINUOUS
 62
     4
 10
 9.9999719999997865
 20
-128.99999899999995
 11
 1.9999529999997208
 21
-134.999979
  0
LINE
  8
85
  6
CONTINUOUS
 62
     4
 10
 9.9999719999997865
 20
-22.999988000000101
 11
 19.000008999999579
 21
-22.999988000000101
  0
LINE
  8
85
  6
CONTINUOUS
 62
     4
 10
 19.000008999999579
 20
-22.999988000000101
 11
 19.000008999999579
 21
-128.99999899999995
  0
LINE
  8
85
  6
CONTINUOUS
 62
     4
 10
 19.000008999999579
 20
-128.99999899999995
 11
 9.9999719999997865
 21
-128.99999899999995
  0
LINE
  8
85
  6
CONTINUOUS
 62
     4
 10
 19.000008999999579
 20
-36.99998699999999
 11
 43.999993999999958
 21
-53.999998000000076
  0
LINE
  8
85
  6
CONTINUOUS
 62
     4
 10
 43.999993999999958
 20
-53.999998000000076
 11
 43.999993999999958
 21
-97.999988000000101
  0
LINE
  8
85
  6
CONTINUOUS
 62
     4
 10
 43.999993999999958
 20
-97.999988000000101
 11
 19.000008999999579
 21
-115.00000000000007
  0
LINE
  8
85
  6
CONTINUOUS
 62
     4
 10
 43.999993999999958
 20
-53.999998000000076
 11
 53.999961999999584
 21
-53.999998000000076
  0
LINE
  8
85
  6
CONTINUOUS
 62
     4
 10
 53.999961999999584
 20
-53.999998000000076
 11
 53.999961999999584
 21
-97.999988000000101
  0
LINE
  8
85
  6
CONTINUOUS
 62
     4
 10
 53.999961999999584
 20
-97.999988000000101
 11
 43.999993999999958
 21
-97.999988000000101
  0
LINE
  8
85
  6
CONTINUOUS
 62
     4
 10
 53.999961999999584
 20
-65.000029000000112
 11
 58.999967999999797
 21
-65.000029000000112
  0
LINE
  8
85
  6
CONTINUOUS
 62
     4
 10
 58.999967999999797
 20
-65.000029000000112
 11
 58.999967999999797
 21
-87.000002000000066
  0
LINE
  8
85
  6
CONTINUOUS
 62
     4
 10
 58.999967999999797
 20
-87.000002000000066
 11
 53.999961999999584
 21
-87.000002000000066
  0
LINE
  8
85
  6
CONTINUOUS
 62
     4
 10
 58.999967999999797
 20
-69.99999099999998
 11
 63.999974000000016
 21
-69.99999099999998
  0
LINE
  8
85
  6
CONTINUOUS
 62
     4
 10
 63.999974000000016
 20
-81.999996000000081
 11
 58.999967999999797
 21
-81.999996000000081
  0
LINE
  8
85
  6
CONTINUOUS
 62
     4
 10
 63.999974000000016
 20
-182.00002599999999
 11
 63.999974000000016
 21
-38.000006000000056
  0
LINE
  8
85
  6
CONTINUOUS
 62
     4
 10
 63.999974000000016
 20
-38.000006000000056
 11
 125.99994999999961
 21
-38.000006000000056
  0
LINE
  8
85
  6
CONTINUOUS
 62
     4
 10
 125.99994999999961
 20
-38.000006000000056
 11
 125.99994999999961
 21
-182.00002599999999
  0
LINE
  8
85
  6
CONTINUOUS
 62
     4
 10
 125.99994999999961
 20
-69.99999099999998
 11
 129.99998099999965
 21
-69.99999099999998
  0
LINE
  8
85
  6
CONTINUOUS
 62
     4
 10
 129.99998099999965
 20
-81.999996000000081
 11
 125.99994999999961
 21
-81.999996000000081
  0
LINE
  8
85
  6
CONTINUOUS
 62
     4
 10
 129.99998099999965
 20
-65.000029000000112
 11
 129.99998099999965
 21
-69.99999099999998
  0
LINE
  8
85
  6
CONTINUOUS
 62
     4
 10
 129.99998099999965
 20
-69.99999099999998
 11
 129.99998099999965
 21
-87.000002000000066
  0
LINE
  8
85
  6
CONTINUOUS
 62
     4
 10
 129.99998099999965
 20
-87.000002000000066
 11
 133.9999679999998
 21
-87.000002000000066
  0
LINE
  8
85
  6
CONTINUOUS
 62
     4
 10
 133.9999679999998
 20
-65.000029000000112
 11
 129.99998099999965
 21
-65.000029000000112
  0
LINE
  8
85
  6
CONTINUOUS
 62
     4
 10
 139.99994799999985
 20
-59.000004000000061
 11
 133.9999679999998
 21
-59.000004000000061
  0
LINE
  8
85
  6
CONTINUOUS
 62
     4
 10
 133.9999679999998
 20
-59.000004000000061
 11
 133.9999679999998
 21
-92.999983
  0
LINE
  8
85
  6
CONTINUOUS
 62
     4
 10
 133.9999679999998
 20
-92.999983
 11
 139.99994799999985
 21
-92.999983
  0
LINE
  8
85
  6
CONTINUOUS
 62
     4
 10
 139.99994799999985
 20
-92.999983
 11
 139.99994799999985
 21
-59.000004000000061
  0
LINE
  8
85
  6
CONTINUOUS
 62
     4
 10
 155.99994099999975
 20
-8.0000149999998911
 11
 155.99994099999975
 21
-143.9999719999999
  0
ARC
  8
85
  6
CONTINUOUS
 62
     4
 10
 151.33545999999996
 20
-13.999994999999942
 40
 6.0000249999999999
 50
 90.000001718873406
 51
 173.29016677719443
  0
LINE
  8
85
  6
CONTINUOUS
 62
     4
 10
 139.99994799999985
 20
-59.000004000000061
 11
 145.37653899999958
 21
-13.298959000000011
  0
LINE
  8
85
  6
CONTINUOUS
 62
     4
 10
 151.33545999999996
 20
-8.0000149999998911
 11
 155.99994099999975
 21
-8.0000149999998911
  0
ARC
  8
85
  6
CONTINUOUS
 62
     4
 10
 151.33545999999996
 20
-137.99999200000008
 40
 6.0000249999999999
 50
-173.29016718855448
 51
-90.000001557275667
  0
LINE
  8
85
  6
CONTINUOUS
 62
     4
 10
 145.37653899999958
 20
-138.70102800000001
 11
 139.99994799999985
 21
-92.999983
  0
LINE
  8
85
  6
CONTINUOUS
 62
     4
 10
 155.99994099999975
 20
-143.9999719999999
 11
 151.33545999999996
 21
-143.9999719999999
  0
LINE
  8
85
  6
CONTINUOUS
 62
     4
 10
 155.99994099999975
 20
-8.0000149999998911
 11
 287.99995499999983
 21
-8.0000149999998911
  0
LINE
  8
85
  6
CONTINUOUS
 62
     4
 10
 287.99995499999983
 20
-8.0000149999998911
 11
 287.99995499999983
 21
-143.9999719999999
  0
LINE
  8
85
  6
CONTINUOUS
 62
     4
 10
 287.99995499999983
 20
-8.0000149999998911
 11
 287.99995499999983
 21
-5.0000020000000376
  0
LINE
  8
85
  6
CONTINUOUS
 62
     4
 10
 287.99995499999983
 20
-5.0000020000000376
 11
 323.99997199999967
 21
-5.0000020000000376
  0
LINE
  8
85
  6
CONTINUOUS
 62
     4
 10
 287.99995499999983
 20
-146.99998499999998
 11
 287.99995499999983
 21
-138.85689800000006
  0
LINE
  8
85
  6
CONTINUOUS
 62
     4
 10
 323.99997199999967
 20
-5.0000020000000376
 11
 329.99995199999972
 21
-20.99999499999997
  0
LINE
  8
85
  6
CONTINUOUS
 62
     4
 10
 329.99995199999972
 20
-20.99999499999997
 11
 329.99999599999984
 21
-130.99999200000008
  0
ARC
  8
85
  6
CONTINUOUS
 62
     4
 10
 180.99996999999956
 20
-1.9999900000000681
 40
 9.9999679999999991
 50
 90.000001718873406
 51
 180.00000286478902
  0
LINE
  8
85
  6
CONTINUOUS
 62
     4
 10
 170.99995899999993
 20
-8.0000149999998911
 11
 170.99995899999993
 21
-1.9999900000000681
  0
ARC
  8
85
  6
CONTINUOUS
 62
     4
 10
 268.99999499999973
 20
-1.9999900000000681
 40
 9.9999679999999991
 50
 0
 51
 90.000001718873406
  0
LINE
  8
85
  6
CONTINUOUS
 62
     4
 10
 180.99996999999956
 20
 7.9999780000000129
 11
 268.99999499999973
 21
 7.9999780000000129
  0
LINE
  8
85
  6
CONTINUOUS
 62
     4
 10
 278.9999619999997
 20
-1.9999900000000681
 11
 278.9999619999997
 21
-8.0000149999998911
  0
LINE
  8
85
  6
CENTER
 62
     7
 10
 174.89598799999993
 20
 0.0000039999999472
 11
 186.69999399999978
 21
 0.0000039999999472
  0
LINE
  8
85
  6
CENTER
 62
     7
 10
 180.99996999999956
 20
 3.4782990000000638
 11
 180.99996999999956
 21
-5.0000020000000376
  0
LINE
  8
85
  6
CENTER
 62
     7
 10
 268.99999499999973
 20
 4.0957980000000163
 11
 268.99999499999973
 21
-5.0000020000000376
  0
LINE
  8
85
  6
CENTER
 62
     7
 10
 264.02399599999973
 20
 0.0000039999999472
 11
 274.52200199999976
 21
 0.0000039999999472
  0
LINE
  8
85
  6
CONTINUOUS
 62
     4
 10
 181.99998899999963
 20
-33.99997500000002
 11
 181.99998899999963
 21
-66.000004000000061
  0
LINE
  8
85
  6
CONTINUOUS
 62
     4
 10
 181.99998899999963
 20
-66.000004000000061
 11
 275.99999399999984
 21
-66.000004000000061
  0
LINE
  8
85
  6
CONTINUOUS
 62
     4
 10
 275.99999399999984
 20
-66.000004000000061
 11
 275.99999399999984
 21
-33.99997500000002
  0
LINE
  8
85
  6
CONTINUOUS
 62
     4
 10
 275.99999399999984
 20
-33.99997500000002
 11
 181.99998899999963
 21
-33.99997500000002
  0
LINE
  8
85
  6
CONTINUOUS
 62
     4
 10
 155.99994099999975
 20
-182.00002599999999
 11
 155.99994099999975
 21
-146.00001000000003
  0
LINE
  8
85
  6
CONTINUOUS
 62
     4
 10
 155.99994099999975
 20
-146.00001000000003
 11
 195.99998799999986
 21
-146.00001000000003
  0
LINE
  8
85
  6
CONTINUOUS
 62
     4
 10
 195.99998799999986
 20
-146.00001000000003
 11
 195.99998799999986
 21
-182.00002599999999
  0
LINE
  8
85
  6
CONTINUOUS
 62
     4
 10
 247.99999699999975
 20
-182.00002599999999
 11
 247.99999699999975
 21
-146.00001000000003
  0
LINE
  8
85
  6
CONTINUOUS
 62
     4
 10
 287.99995499999983
 20
-146.99998499999998
 11
 287.99995499999983
 21
-182.00002599999999
  0
LINE
  8
85
  6
CONTINUOUS
 62
     4
 10
 163.99995899999993
 20
-146.00001000000003
 11
 163.99995899999993
 21
-135.99999800000006
  0
LINE
  8
85
  6
CONTINUOUS
 62
     4
 10
 279.99998099999976
 20
-146.00001000000003
 11
 279.99998099999976
 21
-135.99999800000006
  0
ARC
  8
85
  6
CONTINUOUS
 62
     4
 10
 210.9999619999997
 20
-132.99998600000009
 40
 2.999968
 50
-90.000001557275667
 51
 0
  0
LINE
  8
85
  6
CONTINUOUS
 62
     4
 10
 163.99995899999993
 20
-135.99999800000006
 11
 210.9999619999997
 21
-135.99999800000006
  0
LINE
  8
85
  6
CONTINUOUS
 62
     4
 10
 213.99997399999967
 20
-117.75329599999992
 11
 213.99997399999967
 21
-132.99998600000009
  0
ARC
  8
85
  6
CONTINUOUS
 62
     4
 10
 234.9999719999997
 20
-132.99998600000009
 40
 2.999968
 50
 180.00000286478902
 51
-90.000001557275667
  0
LINE
  8
85
  6
CONTINUOUS
 62
     4
 10
 232.00000399999979
 20
-117.75329599999992
 11
 232.00000399999979
 21
-132.99998600000009
  0
LINE
  8
85
  6
CONTINUOUS
 62
     4
 10
 234.9999719999997
 20
-135.99999800000006
 11
 279.99998099999976
 21
-135.99999800000006
  0
LINE
  8
85
  6
CONTINUOUS
 62
     4
 10
 248.99997099999979
 20
-143.9999719999999
 11
 194.99996899999979
 21
-143.9999719999999
  0
LINE
  8
85
  6
CONTINUOUS
 62
     4
 10
 155.99994099999975
 20
-143.9999719999999
 11
 163.99995899999993
 21
-143.9999719999999
  0
LINE
  8
85
  6
CONTINUOUS
 62
     4
 10
 279.99998099999976
 20
-143.9999719999999
 11
 287.99995499999983
 21
-143.9999719999999
  0
LINE
  8
85
  6
CENTER
 62
     7
 10
 267.99997599999966
 20
-121.8981239999999
 11
 267.99997599999966
 21
-194.27000099999992
  0
LINE
  8
85
  6
CENTER
 62
     7
 10
 224.99996099999981
 20
 40.000007000000053
 11
 224.99996099999981
 21
-197.35000799999995
  0
LINE
  8
85
  6
CENTER
 62
     7
 10
 175.99996399999981
 20
-194.27000099999992
 11
 175.99996399999981
 21
-153.15020899999996
  0
LINE
  8
85
  6
CENTER
 62
     7
 10
-29.84305500000011
 20
-75.999971000000031
 11
 350.62996499999969
 21
-75.999971000000031
  0
LINE
  8
85
  6
CENTER
 62
     7
 10
 309.99997299999978
 20
-173.63998799999996
 11
 309.99997299999978
 21
-298.22302300000007
  0
LINE
  8
85
  6
CENTER
 62
     7
 10
-88.000019999999779
 20
 10.000015000000033
 11
-70.908011000000272
 21
 10.000015000000033
  0
LINE
  8
85
  6
CENTER
 62
     7
 10
-88.000019999999779
 20
-126.00003100000011
 11
-70.908011000000272
 21
-126.00003100000011
  0
LINE
  8
85
  6
CONTINUOUS
 62
     4
 10
-299.99999599999984
 20
-182.00002599999999
 11
 329.99999599999984
 21
-182.00002599999999
  0
LINE
  8
85
  6
CONTINUOUS
 62
     4
 10
-80.000002000000052
 20
 22.999995000000084
 11
-80.000002000000052
 21
-139.00001000000003
  0
LINE
  8
85
  6
CONTINUOUS
 62
     4
 10
-114.00002500000011
 20
-135.99999800000006
 11
-114.00002500000011
 21
 19.999983000000114
  0
LINE
  8
85
  6
CONTINUOUS
 62
     4
 10
-114.00002500000011
 20
-134.00000499999993
 11
-150.00004100000007
 21
-134.00000499999993
  0
LINE
  8
85
  6
CONTINUOUS
 62
     4
 10
-116.99999300000017
 20
 12.000009000000048
 11
-138.00003499999985
 21
 12.000009000000048
  0
LINE
  8
85
  6
CONTINUOUS
 62
     4
 10
 247.99999699999975
 20
-146.00001000000003
 11
 324.3749619999997
 21
-146.00001000000003
  0
LINE
  8
85
  6
CONTINUOUS
 62
     4
 10
 329.99999599999984
 20
-130.99999200000008
 11
 324.3749619999997
 21
-146.00001000000003
  0
ARC
  8
85
  6
CONTINUOUS
 62
     4
 10
 194.99996899999979
 20
-146.99998499999998
 40
 2.999968
 50
 90.000001718873406
 51
 160.52900589338029
  0
ARC
  8
85
  6
CONTINUOUS
 62
     4
 10
 248.99997099999979
 20
-146.99998499999998
 40
 2.999968
 50
 19.470997544366508
 51
 90.000001718873406
  0
LINE
  8
85
  6
CENTER
 62
     7
 10
-317.74189927581631
 20
-57.00001099999993
 11
-53.279029000000094
 21
-57.00001099999993
  0
LINE
  8
85
  6
CENTER
 62
     7
 10
-241.00003299999963
 20
 23.220052000000081
 11
-241.00003299999963
 21
-152.8499359999999
  0
LINE
  8
85
  6
CENTER
 62
     7
 10
-200.00001099999992
 20
-302.21995399999997
 11
-200.00001099999992
 21
 106.47971500000013
  0
LINE
  8
85
  6
CONTINUOUS
 62
     4
 10
-248.00003199999975
 20
 16.000001999999952
 11
-234.00003299999963
 21
 16.000001999999952
  0
LINE
  8
85
  6
CONTINUOUS
 62
     4
 10
-234.00003299999963
 20
 16.000001999999952
 11
-234.00003299999963
 21
 10.00002100000002
  0
LINE
  8
85
  6
CONTINUOUS
 62
     4
 10
-166.00003199999975
 20
 10.00002100000002
 11
-166.00003199999975
 21
 16.000001999999952
  0
LINE
  8
85
  6
CONTINUOUS
 62
     4
 10
-166.00003199999975
 20
 16.000001999999952
 11
-152.00003299999963
 21
 16.000001999999952
  0
LINE
  8
85
  6
CONTINUOUS
 62
     4
 10
-234.00003299999963
 20
 17.000015000000033
 11
-208.65001099999992
 21
 17.000015000000033
  0
LINE
  8
85
  6
CONTINUOUS
 62
     4
 10
-191.35001099999994
 20
 17.000015000000033
 11
-166.00003199999975
 21
 17.000015000000033
  0
LINE
  8
85
  6
CONTINUOUS
 62
     4
 10
-248.00003199999975
 20
 10.00002100000002
 11
-248.00003199999975
 21
 16.000001999999952
  0
LINE
  8
85
  6
CENTER
 62
     7
 10
-159.00003299999963
 20
 23.220052000000081
 11
-159.00003299999963
 21
-152.8499359999999
  0
LINE
  8
85
  6
CONTINUOUS
 62
     4
 10
-152.00003299999963
 20
 16.000001999999952
 11
-152.00003299999963
 21
 10.00002100000002
  0
LINE
  8
85
  6
CONTINUOUS
 62
     4
 10
-250.00002499999965
 20
-11.999996000000051
 11
-149.99999599999984
 21
-11.999996000000051
  0
LINE
  8
85
  6
CONTINUOUS
 62
     4
 10
-149.99999599999984
 20
 10.00002100000002
 11
-250.00002499999965
 21
 10.00002100000002
  0
CIRCLE
  8
85
  6
CONTINUOUS
 62
     4
 10
-200.00001099999992
 20
-57.00001099999993
 40
 31.999984999999999
  0
LINE
  8
85
  6
CONTINUOUS
 62
     4
 10
-235.00000799999981
 20
-11.999996000000051
 11
-235.00000799999981
 21
-101.99998099999999
  0
LINE
  8
85
  6
CONTINUOUS
 62
     4
 10
-165.00001299999968
 20
-11.999996000000051
 11
-165.00001299999968
 21
-101.99998100000001
  0
LINE
  8
85
  6
CONTINUOUS
 62
     4
 10
-247.00001299999968
 20
-11.999996000000051
 11
-247.00001299999968
 21
-101.99998099999999
  0
LINE
  8
85
  6
CONTINUOUS
 62
     4
 10
-250.00002499999965
 20
-123.99999899999995
 11
-149.99999599999984
 21
-123.99999899999995
  0
LINE
  8
85
  6
CONTINUOUS
 62
     4
 10
-149.99999599999984
 20
-101.99998100000001
 11
-250.00002499999965
 21
-101.99998100000001
  0
LINE
  8
85
  6
CONTINUOUS
 62
     4
 10
-250.00002499999965
 20
-101.99998100000001
 11
-250.00002499999965
 21
-123.99999899999995
  0
LINE
  8
85
  6
CONTINUOUS
 62
     4
 10
-248.00003199999975
 20
-123.99999899999995
 11
-248.00003199999975
 21
-129.999979
  0
LINE
  8
85
  6
CONTINUOUS
 62
     4
 10
-248.00003199999975
 20
-129.999979
 11
-234.00003299999963
 21
-129.999979
  0
LINE
  8
85
  6
CONTINUOUS
 62
     4
 10
-234.00003299999963
 20
-129.999979
 11
-234.00003299999963
 21
-123.99999899999995
  0
LINE
  8
85
  6
CONTINUOUS
 62
     4
 10
-166.00003199999975
 20
-123.99999899999995
 11
-166.00003199999975
 21
-129.999979
  0
LINE
  8
85
  6
CONTINUOUS
 62
     4
 10
-166.00003199999975
 20
-129.999979
 11
-152.00003299999963
 21
-129.999979
  0
LINE
  8
85
  6
CONTINUOUS
 62
     4
 10
-152.00003299999963
 20
-129.999979
 11
-152.00003299999963
 21
-123.99999899999995
  0
LINE
  8
85
  6
CONTINUOUS
 62
     4
 10
-250.00002499999965
 20
 15.00002100000002
 11
-250.00002499999965
 21
-6.9999960000000527
  0
LINE
  8
85
  6
CONTINUOUS
 62
     4
 10
-153.00000799999981
 20
-11.999996000000051
 11
-153.00000799999981
 21
-101.99998100000001
  0
ARC
  8
85
  6
CONTINUOUS
 62
     4
 10
-141.00000299999994
 20
 12.999983999999998
 40
 2.999968
 50
 0
 51
 90.000001718873406
  0
LINE
  8
85
  6
CONTINUOUS
 62
     4
 10
-152.00003299999963
 20
 15.999995999999967
 11
-141.00000299999994
 21
 15.999995999999967
  0
LINE
  8
85
  6
CONTINUOUS
 62
     4
 10
-138.00003499999985
 20
 12.999983999999998
 11
-138.00003499999985
 21
-134.00000499999993
  0
LINE
  8
85
  6
CONTINUOUS
 62
     4
 10
-256.00000599999959
 20
 4.0000349999999827
 11
-257.99999999999983
 21
 4.0000349999999827
  0
LINE
  8
85
  6
CONTINUOUS
 62
     4
 10
-257.99999999999983
 20
-8.0000149999998911
 11
-273.99999199999985
 21
-8.0000149999998911
  0
LINE
  8
85
  6
CONTINUOUS
 62
     4
 10
-273.99999199999985
 20
-8.0000149999998911
 11
-273.99999199999985
 21
-108.00000000000007
  0
LINE
  8
85
  6
CONTINUOUS
 62
     4
 10
-264.00002399999977
 20
-8.0000149999998911
 11
-264.00002399999977
 21
-108.00000000000007
  0
LINE
  8
85
  6
CENTER
 62
     7
 10
-286.04708099999999
 20
-16.000033000000073
 11
-251.21628599999968
 21
-16.000033000000073
  0
LINE
  8
85
  6
CONTINUOUS
 62
     4
 10
-257.99999999999983
 20
 4.0000349999999827
 11
-257.99999999999983
 21
-135.99999800000006
  0
LINE
  8
85
  6
CONTINUOUS
 62
     4
 10
-273.99999199999985
 20
-108.00000000000007
 11
-257.99999999999983
 21
-108.00000000000007
  0
LINE
  8
85
  6
CENTER
 62
     7
 10
-286.04708099999999
 20
-99.999982000000116
 11
-251.21628599999968
 21
-99.999982000000116
  0
LINE
  8
85
  6
CONTINUOUS
 62
     4
 10
-257.99999999999983
 20
-135.99999800000006
 11
-256.00000599999959
 21
-135.99999800000006
  0
ARC
  8
85
  6
CONTINUOUS
 62
     4
 10
-262.78602299999994
 20
-57.00001099999993
 40
 17.168415999999997
 50
 130.78151794729843
 51
-130.7815183586585
  0
LINE
  8
85
  6
CONTINUOUS
 62
     4
 10
-256.00000599999959
 20
 12.000009000000048
 11
-250.00002499999965
 21
 12.000009000000048
  0
LINE
  8
85
  6
CONTINUOUS
 62
     4
 10
-252.99999399999965
 20
 15.999995999999967
 11
-248.00003199999975
 21
 15.999995999999967
  0
ARC
  8
85
  6
CONTINUOUS
 62
     4
 10
-252.99999399999965
 20
 12.999983999999998
 40
 2.999968
 50
 90.000001718873406
 51
 180.00000286478902
  0
LINE
  8
85
  6
CONTINUOUS
 62
     4
 10
-256.00000599999959
 20
 10.000015000000033
 11
-256.00000599999959
 21
-182.00002599999999
  0
LINE
  8
85
  6
CONTINUOUS
 62
     4
 10
-256.00000599999959
 20
 9.2070250000001153
 11
-256.00000599999959
 21
 12.000009000000048
  0
LINE
  8
85
  6
CONTINUOUS
 62
     4
 10
-256.00000599999959
 20
 12.000009000000048
 11
-256.00000599999959
 21
 12.999983999999998
  0
LINE
  8
85
  6
CENTER
 62
     7
 10
-280.00001699999967
 20
-173.63998799999996
 11
-280.00001699999967
 21
-295.85601200000002
  0
LINE
  8
85
  6
CONTINUOUS
 62
     4
 10
-299.99999599999984
 20
-182.00002599999999
 11
-299.99999599999984
 21
-272.00000000000006
  0
LINE
  8
85
  6
CENTER
 62
     7
 10
-237.99997599999989
 20
-164.58998800000001
 11
-237.99997599999989
 21
-187.07998200000003
  0
LINE
  8
85
  6
CENTER
 62
     7
 10
-155.99997599999989
 20
-164.58998800000001
 11
-155.99997599999989
 21
-188.87998999999996
  0
LINE
  8
85
  6
CONTINUOUS
 62
     4
 10
-256.00000599999959
 20
-167.99998299999999
 11
-144.00001600000024
 21
-167.99998299999999
  0
LINE
  8
85
  6
CONTINUOUS
 62
     4
 10
 329.99999599999984
 20
-272.00000000000006
 11
-299.99999599999984
 21
-272.00000000000006
  0
LINE
  8
85
  6
CENTER
 62
     7
 10
 94.999983999999756
 20
-194.27000099999992
 11
 94.999983999999756
 21
-153.15020899999996
  0
LINE
  8
85
  6
CONTINUOUS
 62
     4
 10
-149.99999599999984
 20
 14.000003000000063
 11
-149.99999599999984
 21
-134.00000499999993
  0
LINE
  8
224
  6
CONTINUOUS
 62
     5
 10
-630
 20
 891
 11
 630
 21
 891
  0
LINE
  8
224
  6
CONTINUOUS
 62
     5
 10
 630
 20
 891
 11
 630
 21
-891
  0
LINE
  8
224
  6
CONTINUOUS
 62
     5
 10
 630
 20
-891
 11
-630
 21
-891
  0
LINE
  8
224
  6
CONTINUOUS
 62
     5
 10
-630
 20
-891
 11
-630
 21
 891
  0
LINE
  8
224
  6
CONTINUOUS
 62
     5
 10
-540
 20
-831
 11
-540
 21
 831
  0
LINE
  8
224
  6
CONTINUOUS
 62
     5
 10
 570
 20
 831
 11
 570
 21
-831
  0
LINE
  8
224
  6
CONTINUOUS
 62
     5
 10
 570
 20
-831
 11
-540
 21
-831
  0
LINE
  8
224
  6
CONTINUOUS
 62
     5
 10
-540
 20
 831
 11
 570
 21
 831
  0
LINE
  8
224
  6
CONTINUOUS
 62
     5
 10
 570
 20
-597
 11
-540
 21
-597
  0
LINE
  8
224
  6
CONTINUOUS
 62
     5
 10
 570
 20
-645
 11
-540
 21
-645
  0
LINE
  8
224
  6
CONTINUOUS
 62
     5
 10
 570
 20
-723
 11
-540
 21
-723
  0
LINE
  8
224
  6
CONTINUOUS
 62
     5
 10
 90
 20
-765
 11
-540
 21
-765
  0
LINE
  8
224
  6
CONTINUOUS
 62
     5
 10
 90
 20
-831
 11
 90
 21
-597
  0
LINE
  8
224
  6
CONTINUOUS
 62
     5
 10
-382.5
 20
-723
 11
-382.5
 21
-831
  0
LINE
  8
224
  6
CONTINUOUS
 62
     5
 10
-225
 20
-723
 11
-225
 21
-831
  0
LINE
  8
224
  6
CONTINUOUS
 62
     5
 10
-67.5
 20
-723
 11
-67.5
 21
-831
  0
LINE
  8
224
  6
CONTINUOUS
 62
     5
 10
-540
 20
-681
 11
 90
 21
-681
  0
LINE
  8
224
  6
CONTINUOUS
 62
     5
 10
 474
 20
-597
 11
 474
 21
-723
  0
LINE
  8
224
  6
CONTINUOUS
 62
     5
 10
 454
 20
-699
 11
 110
 21
-699
  0
TEXT
  8
224
  6
CONTINUOUS
 62
     5
 10
-505.65000010728835
 20
-762
 11
-416.85000010728834
 21
-762
 40
 18
 41
 0.8
  1
承認
 50
 0
 72
  5
  0
TEXT
  8
224
  6
CONTINUOUS
 62
     5
 10
-348.15000010728835
 20
-762
 11
-259.35000010728834
 21
-762
 40
 18
 41
 0.8
  1
検図
 50
 0
 72
  5
  0
TEXT
  8
224
  6
CONTINUOUS
 62
     5
 10
-190.65000010728835
 20
-762
 11
-101.85000010728837
 21
-762
 40
 18
 41
 0.8
  1
設計
 50
 0
 72
  5
  0
TEXT
  8
224
  6
CONTINUOUS
 62
     5
 10
-33.150000107288363
 20
-762
 11
 55.649999892711634
 21
-762
 40
 18
 41
 0.8
  1
製図
 50
 0
 72
  5
  0
TEXT
  8
208
  6
CONTINUOUS
 62
     3
 10
-431.99998862743365
 20
-711
 11
 36.000011372566348
 21
-711
 40
 18
 41
 0.8
  1
ＷＳポンプ（１０Ａ）外形寸法図
 50
 0
 72
  5
  0
TEXT
  8
208
  6
CONTINUOUS
 62
     3
 10
 494.40000005364419
 20
-693
 11
 549.60000005364418
 21
-693
 40
 18
 41
 0.8
  1
１／６
 50
 0
 72
  5
  0
TEXT
  8
224
  6
CONTINUOUS
 62
     5
 10
 145.2000000357628
 20
-639
 11
 418.80000003576282
 21
-639
 40
 18
 41
 0.8
  1
図面番号
 50
 0
 72
  5
  0
TEXT
  8
224
  6
CONTINUOUS
 62
     5
 10
 492.60000007152559
 20
-639
 11
 551.40000007152548
 21
-639
 40
 18
 41
 0.8
  1
尺度
 50
 0
 72
  5
  0
TEXT
  8
224
  6
CONTINUOUS
 62
     5
 10
-433.79999996423709
 20
-639
 11
-16.199999964237065
 21
-639
 40
 18
 41
 0.8
  1
図面名称
 50
 0
 72
  5
  0
TEXT
  8
208
  6
CONTINUOUS
 62
     3
 10
 145.19999994635583
 20
-681
 11
 418.79999994635585
 21
-681
 40
 18
 41
 0.8
  1
CAP-0-106
 50
 0
 72
  5
  0
TEXT
  8
208
  6
CONTINUOUS
 62
     3
 10
-524.99999989271157
 20
-675
 11
-199.79999989271153
 21
-675
 40
 18
 41
 0.8
  1
１連式別置タイプ
 50
 0
 72
  5
  0
TEXT
  8
229
  6
CONTINUOUS
 62
     5
 10
-355.35000042915345
 20
-738
 11
-252.15000042915344
 21
-738
 40
 12
 41
 0.8
  1
CHECKED
 50
 0
 72
  5
  0
TEXT
  8
229
  6
CONTINUOUS
 62
     5
 10
-205.65000050067903
 20
-738
 11
-86.850000500679002
 21
-738
 40
 12
 41
 0.8
  1
DESIGNED
 50
 0
 72
  5
  0
TEXT
  8
229
  6
CONTINUOUS
 62
     5
 10
-24.750000286102296
 20
-738
 11
 47.249999713897708
 21
-738
 40
 12
 41
 0.8
  1
DRAWN
 50
 0
 72
  5
  0
TEXT
  8
229
  6
CONTINUOUS
 62
     5
 10
-261.00000028610231
 20
-612
 11
-189.00000028610231
 21
-612
 40
 12
 41
 0.8
  1
TITLE
 50
 0
 72
  5
  0
TEXT
  8
229
  6
CONTINUOUS
 62
     5
 10
-520.65000050067897
 20
-738
 11
-401.85000050067902
 21
-738
 40
 12
 41
 0.8
  1
APPROVED
 50
 0
 72
  5
  0
TEXT
  8
229
  6
CONTINUOUS
 62
     5
 10
 485.99999971389769
 20
-612
 11
 557.99999971389775
 21
-612
 40
 12
 41
 0.8
  1
SCALE
 50
 0
 72
  5
  0
TEXT
  8
229
  6
CONTINUOUS
 62
     5
 10
 347.67113178259143
 20
-612
 11
 388.47113178259144
 21
-612
 40
 12
 41
 0.8
  1
NO.
 50
 0
 72
  5
  0
TEXT
  8
229
  6
CONTINUOUS
 62
     5
 10
 141.92958083177507
 20
-612
 11
 245.12958083177509
 21
-612
 40
 12
 41
 0.8
  1
DRAWING
 50
 0
 72
  5
  0
LINE
  8
85
  6
CONTINUOUS
 62
     4
 10
 248.94789270211149
 20
 653.40187283045498
 11
 248.94789270211149
 21
 625.40186083045501
  0
LINE
  8
85
  6
CONTINUOUS
 62
     4
 10
 266.24789270211147
 20
 653.40187283045498
 11
 266.24789270211147
 21
 625.40186083045501
  0
LINE
  8
85
  6
CONTINUOUS
 62
     4
 10
 248.94789270211149
 20
 653.40187283045498
 11
 266.24789270211147
 21
 653.40187283045498
  0
LINE
  8
85
  6
CONTINUOUS
 62
     4
 10
 248.94789270211149
 20
 638.40187283045498
 11
 266.24789270211147
 21
 638.40187283045498
  0
LINE
  8
85
  6
CONTINUOUS
 62
     4
 10
 248.94789270211149
 20
 638.40187283045498
 11
 251.44789270211149
 21
 653.40187283045498
  0
LINE
  8
85
  6
CONTINUOUS
 62
     4
 10
 266.24789170211147
 20
 638.40187283045498
 11
 263.74789170211147
 21
 653.40187283045498
  0
LINE
  8
85
  6
CONTINUOUS
 62
     7
 10
-374.37647089583515
 20
 84.534254931874088
 11
-424.37647089583515
 21
 84.534254931874088
  0
LINE
  8
85
  6
CONTINUOUS
 62
     7
 10
-391.76313576903834
 20
 89.192997743719403
 11
-374.37647089583533
 21
 84.534254931874088
  0
LINE
  8
85
  6
CONTINUOUS
 62
     7
 10
-374.37647089583533
 20
 84.534254931874088
 11
-391.76313576903834
 21
 79.875512120028688
  0
LINE
  8
85
  6
CONTINUOUS
 62
     7
 10
-424.37647089583515
 20
 84.534254931874088
 11
-424.37647089583515
 21
 51.326707762062767
  0
TEXT
  8
213
  6
CONTINUOUS
 62
     7
 10
-455.89807164786629
 20
 50.788971913006165
 11
-439.09807164786628
 21
 50.788971913006165
 40
 21
 41
 0.8
  1
A
 50
 0
 72
  5
  0
LINE
  8
85
  6
CONTINUOUS
 62
     7
 10
-374.37647089583515
 20
 104.53425493187406
 11
-374.37647089583515
 21
 64.534254931874088
  0
LINE
  8
85
  6
CONTINUOUS
 62
     7
 10
-374.37647089583521
 20
-315.4657450681259
 11
-424.37647089583521
 21
-315.4657450681259
  0
LINE
  8
85
  6
CONTINUOUS
 62
     7
 10
-391.7631357690384
 20
-310.80700225628055
 11
-374.37647089583538
 21
-315.4657450681259
  0
LINE
  8
85
  6
CONTINUOUS
 62
     7
 10
-374.37647089583538
 20
-315.4657450681259
 11
-391.7631357690384
 21
-320.1244878799713
  0
LINE
  8
85
  6
CONTINUOUS
 62
     7
 10
-424.37647089583521
 20
-315.4657450681259
 11
-424.37647089583521
 21
-282.25819789831456
  0
TEXT
  8
213
  6
CONTINUOUS
 62
     7
 10
-455.89807164786635
 20
-302.72046204925795
 11
-439.09807164786633
 21
-302.72046204925795
 40
 21
 41
 0.8
  1
A
 50
 0
 72
  5
  0
LINE
  8
85
  6
CONTINUOUS
 62
     7
 10
-374.37647089583521
 20
-295.4657450681259
 11
-374.37647089583521
 21
-335.46574506812595
  0
LINE
  8
37
  6
CONTINUOUS
 62
     6
 10
 257.59789270211229
 20
 338.00188383045514
 11
 257.59789270211229
 21
 280.69519052376194
  0
LINE
  8
37
  6
CONTINUOUS
 62
     6
 10
 52.597918702111215
 20
 329.23190783045493
 11
 52.597918702111215
 21
 280.69519052376194
  0
LINE
  8
37
  6
CONTINUOUS
 62
     6
 10
 257.59789270211229
 20
 286.09519052376191
 11
 52.597918702111215
 21
 286.09519052376191
  0
LINE
  8
37
  6
CONTINUOUS
 62
     6
 10
 257.59789270211229
 20
 286.09519052376191
 11
 242.92567869110519
 21
 289.21386588602832
  0
LINE
  8
37
  6
CONTINUOUS
 62
     6
 10
 257.59789270211229
 20
 286.09519052376191
 11
 242.92567869110519
 21
 282.97651516149551
  0
LINE
  8
37
  6
CONTINUOUS
 62
     6
 10
 52.597918702111215
 20
 286.09519052376191
 11
 67.270132713118301
 21
 282.97651516149551
  0
LINE
  8
37
  6
CONTINUOUS
 62
     6
 10
 52.597918702111215
 20
 286.09519052376191
 11
 67.270132713118301
 21
 289.21386588602832
  0
TEXT
  8
37
  6
CONTINUOUS
 62
     96
 10
 133.49790548753504
 20
 289.69519052376194
 11
 176.69790548753502
 21
 289.69519052376194
 40
 18
 41
 0.8
  1
205
 50
 0
 72
  5
  0
LINE
  8
37
  6
CONTINUOUS
 62
     6
 10
-167.40208229788823
 20
 332.09190783045483
 11
-167.40208229788823
 21
 280.69519052376194
  0
LINE
  8
37
  6
CONTINUOUS
 62
     6
 10
 52.597918702111215
 20
 286.09519052376191
 11
-167.40208229788823
 21
 286.09519052376191
  0
LINE
  8
37
  6
CONTINUOUS
 62
     6
 10
 52.597918702111215
 20
 286.09519052376191
 11
 37.92570469110413
 21
 289.21386588602832
  0
LINE
  8
37
  6
CONTINUOUS
 62
     6
 10
 52.597918702111215
 20
 286.09519052376191
 11
 37.92570469110413
 21
 282.97651516149551
  0
LINE
  8
37
  6
CONTINUOUS
 62
     6
 10
-167.40208229788823
 20
 286.09519052376191
 11
-152.72986828688113
 21
 282.97651516149551
  0
LINE
  8
37
  6
CONTINUOUS
 62
     6
 10
-167.40208229788823
 20
 286.09519052376191
 11
-152.72986828688113
 21
 289.21386588602832
  0
TEXT
  8
37
  6
CONTINUOUS
 62
     96
 10
-79.002082012465223
 20
 289.69519052376194
 11
-35.80208201246522
 21
 289.69519052376194
 40
 18
 41
 0.8
  1
220
 50
 0
 72
  5
  0
LINE
  8
37
  6
CONTINUOUS
 62
     6
 10
 92.597918702111201
 20
 338.00188383045497
 11
 92.597918702111201
 21
 221.73986013986013
  0
LINE
  8
37
  6
CONTINUOUS
 62
     6
 10
-207.40208229788823
 20
 338.00188383045497
 11
-207.40208229788823
 21
 221.73986013986013
  0
LINE
  8
37
  6
CONTINUOUS
 62
     6
 10
 92.597918702111201
 20
 227.13986013986013
 11
-207.40208229788823
 21
 227.13986013986013
  0
LINE
  8
37
  6
CONTINUOUS
 62
     6
 10
 92.597918702111201
 20
 227.13986013986013
 11
 77.925704691104116
 21
 230.25853550212653
  0
LINE
  8
37
  6
CONTINUOUS
 62
     6
 10
 92.597918702111201
 20
 227.13986013986013
 11
 77.925704691104116
 21
 224.02118477759373
  0
LINE
  8
37
  6
CONTINUOUS
 62
     6
 10
-207.40208229788823
 20
 227.13986013986013
 11
-192.72986828688113
 21
 224.02118477759373
  0
LINE
  8
37
  6
CONTINUOUS
 62
     6
 10
-207.40208229788823
 20
 227.13986013986013
 11
-192.72986828688113
 21
 230.25853550212653
  0
TEXT
  8
37
  6
CONTINUOUS
 62
     96
 10
-79.002082012465237
 20
 230.73986013986013
 11
-35.802082012465235
 21
 230.73986013986013
 40
 18
 41
 0.8
  1
300
 50
 0
 72
  5
  0
LINE
  8
37
  6
CONTINUOUS
 62
     6
 10
-207.40208229788823
 20
 332.60188383045494
 11
-207.40208229788823
 21
 286.09519052376186
  0
LINE
  8
37
  6
CONTINUOUS
 62
     6
 10
-167.40208229788823
 20
 286.09519052376186
 11
-207.40208229788823
 21
 286.09519052376186
  0
LINE
  8
37
  6
CONTINUOUS
 62
     6
 10
-167.40208229788823
 20
 286.09519052376186
 11
-182.07429630889533
 21
 289.21386588602826
  0
LINE
  8
37
  6
CONTINUOUS
 62
     6
 10
-167.40208229788823
 20
 286.09519052376186
 11
-182.07429630889533
 21
 282.97651516149546
  0
LINE
  8
37
  6
CONTINUOUS
 62
     6
 10
-207.40208229788823
 20
 286.09519052376186
 11
-192.72986828688113
 21
 282.97651516149546
  0
LINE
  8
37
  6
CONTINUOUS
 62
     6
 10
-207.40208229788823
 20
 286.09519052376186
 11
-192.72986828688113
 21
 289.21386588602826
  0
TEXT
  8
37
  6
CONTINUOUS
 62
     96
 10
-201.80208240517658
 20
 289.69519052376188
 11
-173.00208240517657
 21
 289.69519052376188
 40
 18
 41
 0.8
  1
40
 50
 0
 72
  5
  0
LINE
  8
37
  6
CONTINUOUS
 62
     6
 10
 97.997918702111193
 20
 343.40188383045501
 11
 404.1585400859463
 21
 343.40188383045495
  0
LINE
  8
37
  6
CONTINUOUS
 62
     6
 10
 386.83457182065399
 20
 558.40187283045543
 11
 404.1585400859463
 21
 558.40187283045714
  0
LINE
  8
37
  6
CONTINUOUS
 62
     6
 10
 398.75854008594632
 20
 343.40188383045495
 11
 398.75854008594632
 21
 558.40187283045668
  0
LINE
  8
37
  6
CONTINUOUS
 62
     6
 10
 398.75854008594632
 20
 343.40188383045495
 11
 401.87721544821272
 21
 358.07409784146205
  0
LINE
  8
37
  6
CONTINUOUS
 62
     6
 10
 398.75854008594632
 20
 343.40188383045495
 11
 395.63986472367992
 21
 358.07409784146205
  0
LINE
  8
37
  6
CONTINUOUS
 62
     6
 10
 398.75854008594632
 20
 558.40187283045668
 11
 395.63986472367992
 21
 543.72965881944958
  0
LINE
  8
37
  6
CONTINUOUS
 62
     6
 10
 398.75854008594632
 20
 558.40187283045668
 11
 401.87721544821272
 21
 543.72965881944958
  0
TEXT
  8
37
  6
CONTINUOUS
 62
     96
 10
 395.1585400859463
 20
 429.30187811587814
 11
 395.1585400859463
 21
 472.50187811587818
 40
 18
 41
 0.8
  1
215
 50
 90.000001535234489
 72
  5
  0
LINE
  8
37
  6
CONTINUOUS
 62
     6
 10
 257.59789270211019
 20
 681.80187283045461
 11
 257.59789270210513
 21
 703.04665523156086
  0
LINE
  8
37
  6
CONTINUOUS
 62
     6
 10
-102.40209029788834
 20
 674.03188683045494
 11
-102.40209029788903
 21
 703.04665523156086
  0
LINE
  8
37
  6
CONTINUOUS
 62
     6
 10
 257.59789270210644
 20
 697.64665523156089
 11
-102.4020902978889
 21
 697.64665523156089
  0
LINE
  8
37
  6
CONTINUOUS
 62
     6
 10
 257.59789270210644
 20
 697.64665523156089
 11
 242.92567869109934
 21
 700.76533059382723
  0
LINE
  8
37
  6
CONTINUOUS
 62
     6
 10
 257.59789270210644
 20
 697.64665523156089
 11
 242.92567869109934
 21
 694.52797986929454
  0
LINE
  8
37
  6
CONTINUOUS
 62
     6
 10
-102.4020902978889
 20
 697.64665523156089
 11
-87.729876286881819
 21
 694.52797986929454
  0
LINE
  8
37
  6
CONTINUOUS
 62
     6
 10
-102.4020902978889
 20
 697.64665523156089
 11
-87.729876286881819
 21
 700.76533059382723
  0
TEXT
  8
37
  6
CONTINUOUS
 62
     96
 10
 55.997900987529867
 20
 701.24665523156091
 11
 99.197900987529863
 21
 701.24665523156091
 40
 18
 41
 0.8
  1
360
 50
 0
 72
  5
  0
LINE
  8
37
  6
CONTINUOUS
 62
     6
 10
 287.59788470211106
 20
 635.80186083045498
 11
 287.59788470211106
 21
 697.64665523156089
  0
LINE
  8
37
  6
CONTINUOUS
 62
     6
 10
 287.59788470211106
 20
 697.64665523156089
 11
 257.59789270210644
 21
 697.64665523156089
  0
LINE
  8
37
  6
CONTINUOUS
 62
     6
 10
 287.59788470211106
 20
 697.64665523156089
 11
 272.92567069110396
 21
 700.76533059382723
  0
LINE
  8
37
  6
CONTINUOUS
 62
     6
 10
 287.59788470211106
 20
 697.64665523156089
 11
 272.92567069110396
 21
 694.52797986929454
  0
LINE
  8
37
  6
CONTINUOUS
 62
     6
 10
 257.59789270210644
 20
 697.64665523156089
 11
 272.27010671311353
 21
 694.52797986929454
  0
LINE
  8
37
  6
CONTINUOUS
 62
     6
 10
 257.59789270210644
 20
 697.64665523156089
 11
 272.27010671311353
 21
 700.76533059382723
  0
TEXT
  8
37
  6
CONTINUOUS
 62
     96
 10
 258.19788859482037
 20
 701.24665523156079
 11
 286.99788859482032
 21
 701.24665523156079
 40
 18
 41
 0.8
  1
30
 50
 0
 72
  5
  0
LINE
  8
37
  6
CONTINUOUS
 62
     6
 10
 287.59788470211106
 20
 703.04665523156086
 11
 287.59788470211106
 21
 746.11698113207547
  0
LINE
  8
37
  6
CONTINUOUS
 62
     6
 10
-304.40209929788853
 20
 623.801854830455
 11
-304.40209929788853
 21
 746.11698113207547
  0
LINE
  8
37
  6
CONTINUOUS
 62
     6
 10
 287.59788470211106
 20
 740.71698113207549
 11
-304.40209929788853
 21
 740.71698113207549
  0
LINE
  8
37
  6
CONTINUOUS
 62
     6
 10
 287.59788470211106
 20
 740.71698113207549
 11
 272.92567069110396
 21
 743.83565649434183
  0
LINE
  8
37
  6
CONTINUOUS
 62
     6
 10
 287.59788470211106
 20
 740.71698113207549
 11
 272.92567069110396
 21
 737.59830576980914
  0
LINE
  8
37
  6
CONTINUOUS
 62
     6
 10
-304.40209929788853
 20
 740.71698113207549
 11
-289.72988528688143
 21
 737.59830576980914
  0
LINE
  8
37
  6
CONTINUOUS
 62
     6
 10
-304.40209929788853
 20
 740.71698113207549
 11
-289.72988528688143
 21
 743.83565649434183
  0
TEXT
  8
213
  6
CONTINUOUS
 62
     96
 10
-46.202107619753818
 20
 746.11698113207547
 11
 29.397892380246176
 21
 746.11698113207547
 40
 18
 41
 0.8
  1
約５９２
 50
 0
 72
  5
  0
LINE
  8
37
  6
CONTINUOUS
 62
     6
 10
-280.00001699999967
 20
-301.256012
 11
-280.00001699999967
 21
-318.66457975986282
  0
LINE
  8
37
  6
CONTINUOUS
 62
     6
 10
-200.00001099999992
 20
-307.61995399999995
 11
-200.00001099999992
 21
-318.66457975986282
  0
LINE
  8
37
  6
CONTINUOUS
 62
     6
 10
-280.00001699999967
 20
-313.26457975986284
 11
-200.00001099999992
 21
-313.26457975986284
  0
LINE
  8
37
  6
CONTINUOUS
 62
     6
 10
-280.00001699999967
 20
-313.26457975986284
 11
-265.32780298899257
 21
-316.38325512212924
  0
LINE
  8
37
  6
CONTINUOUS
 62
     6
 10
-280.00001699999967
 20
-313.26457975986284
 11
-265.32780298899257
 21
-310.14590439759644
  0
LINE
  8
37
  6
CONTINUOUS
 62
     6
 10
-200.00001099999992
 20
-313.26457975986284
 11
-214.67222501100701
 21
-310.14590439759644
  0
LINE
  8
37
  6
CONTINUOUS
 62
     6
 10
-200.00001099999992
 20
-313.26457975986284
 11
-214.67222501100701
 21
-316.38325512212924
  0
TEXT
  8
37
  6
CONTINUOUS
 62
     96
 10
-254.40001410728817
 20
-309.66457975986282
 11
-225.60001410728813
 21
-309.66457975986282
 40
 18
 41
 0.8
  1
80
 50
 0
 72
  5
  0
LINE
  8
37
  6
CONTINUOUS
 62
     6
 10
-299.99999600000001
 20
-277.39999999999998
 11
-299.99999600000001
 21
-354.66457975986282
  0
LINE
  8
37
  6
CONTINUOUS
 62
     6
 10
-280.00001699999967
 20
-324.0645797598628
 11
-280.00001699999967
 21
-354.66457975986282
  0
LINE
  8
37
  6
CONTINUOUS
 62
     6
 10
-299.99999600000001
 20
-349.26457975986278
 11
-280.00001699999967
 21
-349.26457975986278
  0
TEXT
  8
37
  6
CONTINUOUS
 62
     96
 10
-335.99999642915344
 20
-345.66457975986276
 11
-307.19999642915343
 21
-345.66457975986276
 40
 18
 41
 0.8
  1
20
 50
 0
 72
  5
  0
LINE
  8
37
  6
CONTINUOUS
 62
     6
 10
-339.59999653644178
 20
-349.26457975986278
 11
-299.99999600000001
 21
-349.26457975986278
  0
LINE
  8
37
  6
CONTINUOUS
 62
     6
 10
-299.99999600000001
 20
-349.26457975986278
 11
-314.67221001100711
 21
-346.14590439759638
  0
LINE
  8
37
  6
CONTINUOUS
 62
     6
 10
-299.99999600000001
 20
-349.26457975986278
 11
-314.67221001100711
 21
-352.38325512212919
  0
LINE
  8
37
  6
CONTINUOUS
 62
     6
 10
-267.40001699999965
 20
-349.26457975986278
 11
-280.00001699999967
 21
-349.26457975986278
  0
LINE
  8
37
  6
CONTINUOUS
 62
     6
 10
-280.00001699999967
 20
-349.26457975986278
 11
-265.32780298899257
 21
-352.38325512212919
  0
LINE
  8
37
  6
CONTINUOUS
 62
     6
 10
-280.00001699999967
 20
-349.26457975986278
 11
-265.32780298899257
 21
-346.14590439759638
  0
LINE
  8
37
  6
CONTINUOUS
 62
     6
 10
 309.99997299999978
 20
-303.62302300000005
 11
 309.99997299999978
 21
-354.66457975986282
  0
LINE
  8
37
  6
CONTINUOUS
 62
     6
 10
-280.00001699999967
 20
-349.26457975986278
 11
 309.99997299999978
 21
-349.26457975986278
  0
LINE
  8
37
  6
CONTINUOUS
 62
     6
 10
-280.00001699999967
 20
-349.26457975986278
 11
-265.32780298899257
 21
-352.38325512212919
  0
LINE
  8
37
  6
CONTINUOUS
 62
     6
 10
-280.00001699999967
 20
-349.26457975986278
 11
-265.32780298899257
 21
-346.14590439759638
  0
LINE
  8
37
  6
CONTINUOUS
 62
     6
 10
 309.99997299999978
 20
-349.26457975986278
 11
 295.32775898899268
 21
-346.14590439759638
  0
LINE
  8
37
  6
CONTINUOUS
 62
     6
 10
 309.99997299999978
 20
-349.26457975986278
 11
 295.32775898899268
 21
-352.38325512212919
  0
TEXT
  8
37
  6
CONTINUOUS
 62
     96
 10
-6.6000222145766667
 20
-345.66457975986282
 11
 36.599977785423334
 21
-345.66457975986282
 40
 18
 41
 0.8
  1
590
 50
 0
 72
  5
  0
LINE
  8
37
  6
CONTINUOUS
 62
     6
 10
 329.99999599999984
 20
-277.40000000000003
 11
 329.99999599999984
 21
-354.66457975986282
  0
LINE
  8
37
  6
CONTINUOUS
 62
     6
 10
 309.99997299999978
 20
-349.26457975986278
 11
 329.99999599999984
 21
-349.26457975986278
  0
TEXT
  8
37
  6
CONTINUOUS
 62
     96
 10
 339.05612136222447
 20
-345.66457975986276
 11
 367.85612136222448
 21
-345.66457975986276
 40
 18
 41
 0.8
  1
20
 50
 0
 72
  5
  0
LINE
  8
37
  6
CONTINUOUS
 62
     6
 10
 371.45612168408951
 20
-349.26457975986278
 11
 329.99999599999984
 21
-349.26457975986278
  0
LINE
  8
37
  6
CONTINUOUS
 62
     6
 10
 329.99999599999984
 20
-349.26457975986278
 11
 344.67221001100694
 21
-352.38325512212919
  0
LINE
  8
37
  6
CONTINUOUS
 62
     6
 10
 329.99999599999984
 20
-349.26457975986278
 11
 344.67221001100694
 21
-346.14590439759638
  0
LINE
  8
37
  6
CONTINUOUS
 62
     6
 10
 297.39997299999976
 20
-349.26457975986278
 11
 309.99997299999978
 21
-349.26457975986278
  0
LINE
  8
37
  6
CONTINUOUS
 62
     6
 10
 309.99997299999978
 20
-349.26457975986278
 11
 295.32775898899268
 21
-346.14590439759638
  0
LINE
  8
37
  6
CONTINUOUS
 62
     6
 10
 309.99997299999978
 20
-349.26457975986278
 11
 295.32775898899268
 21
-352.38325512212919
  0
LINE
  8
37
  6
CONTINUOUS
 62
     6
 10
-299.99999600000001
 20
-354.66457975986276
 11
-299.99999600000001
 21
-390.66457975986276
  0
LINE
  8
37
  6
CONTINUOUS
 62
     6
 10
 329.99999599999984
 20
-354.66457975986276
 11
 329.99999599999984
 21
-390.66457975986276
  0
LINE
  8
37
  6
CONTINUOUS
 62
     6
 10
-299.99999600000001
 20
-385.26457975986278
 11
 329.99999599999984
 21
-385.26457975986278
  0
LINE
  8
37
  6
CONTINUOUS
 62
     6
 10
-299.99999600000001
 20
-385.26457975986278
 11
-285.32778198899291
 21
-388.38325512212919
  0
LINE
  8
37
  6
CONTINUOUS
 62
     6
 10
-299.99999600000001
 20
-385.26457975986278
 11
-285.32778198899291
 21
-382.14590439759638
  0
LINE
  8
37
  6
CONTINUOUS
 62
     6
 10
 329.99999599999984
 20
-385.26457975986278
 11
 315.32778198899274
 21
-382.14590439759638
  0
LINE
  8
37
  6
CONTINUOUS
 62
     6
 10
 329.99999599999984
 20
-385.26457975986278
 11
 315.32778198899274
 21
-388.38325512212919
  0
TEXT
  8
37
  6
CONTINUOUS
 62
     96
 10
-6.6000002145768075
 20
-381.66457975986276
 11
 36.599999785423194
 21
-381.66457975986276
 40
 18
 41
 0.8
  1
630
 50
 0
 72
  5
  0
LINE
  8
85
  6
DASHED
 62
     2
 10
 73.9999655000003
 20
-55.999971000000031
 11
 113.9999655000003
 21
-55.999971000000031
  0
LINE
  8
85
  6
DASHED
 62
     2
 10
 113.9999655000003
 20
-55.999971000000031
 11
 113.9999655000003
 21
-95.999971000000031
  0
LINE
  8
85
  6
DASHED
 62
     2
 10
 113.9999655000003
 20
-95.999971000000031
 11
 73.9999655000003
 21
-95.999971000000031
  0
LINE
  8
85
  6
DASHED
 62
     2
 10
 73.9999655000003
 20
-95.999971000000031
 11
 73.9999655000003
 21
-55.999971000000031
  0
LINE
  8
85
  6
DASHED
 62
     2
 10
 88.9999655000003
 20
-90.999971000000031
 11
 88.9999655000003
 21
-55.999971000000038
  0
LINE
  8
85
  6
DASHED
 62
     2
 10
 88.9999655000003
 20
-90.999971000000031
 11
 98.9999655000003
 21
-90.999971000000031
  0
LINE
  8
85
  6
DASHED
 62
     2
 10
 63.999974000000016
 20
-69.999989999999869
 11
 73.9999655000003
 21
-69.999989999999869
  0
LINE
  8
85
  6
DASHED
 62
     2
 10
 63.999974000000016
 20
-81.999950999999854
 11
 73.9999655000003
 21
-81.999950999999854
  0
LINE
  8
85
  6
DASHED
 62
     2
 10
 125.99994999999961
 20
-69.999989999999869
 11
 113.99996550000031
 21
-69.999989999999869
  0
LINE
  8
85
  6
DASHED
 62
     2
 10
 125.99994999999961
 20
-81.999950999999854
 11
 113.99996550000031
 21
-81.999950999999854
  0
LINE
  8
85
  6
DASHED
 62
     2
 10
 98.9999655000003
 20
-60.999971000000023
 11
 98.999965500000258
 21
-95.999971000000031
  0
LINE
  8
85
  6
DASHED
 62
     2
 10
 88.9999655000003
 20
-60.999971000000023
 11
 98.9999655000003
 21
-60.999971000000023
  0
LINE
  8
85
  6
DASHED
 62
     2
 10
 302.99997299999973
 20
-182.00002599999999
 11
 302.99997299999973
 21
-188.00002599999999
  0
LINE
  8
85
  6
DASHED
 62
     2
 10
 316.99997299999973
 20
-182.00002599999999
 11
 316.99997299999973
 21
-188.00002599999999
  0
LINE
  8
85
  6
DASHED
 62
     2
 10
 302.99997299999973
 20
-188.00002599999999
 11
 316.99997299999973
 21
-188.00002599999999
  0
LINE
  8
213
  6
CONTINUOUS
 62
     7
 10
 309.99997299999973
 20
-182.00002599999999
 11
 351.33111592866419
 21
-122.31951865303158
  0
LINE
  8
213
  6
CONTINUOUS
 62
     7
 10
 309.99997299999973
 20
-182.00002599999999
 11
 320.91731001534617
 21
-171.7135420286254
  0
LINE
  8
213
  6
CONTINUOUS
 62
     7
 10
 309.99997299999973
 20
-182.00002599999999
 11
 315.789566680353
 21
-168.16237428388811
  0
LINE
  8
213
  6
CONTINUOUS
 62
     7
 10
 351.33111592866419
 20
-122.31951865303158
 11
 439.53111775256627
 21
-122.31951865303158
  0
TEXT
  8
213
  6
CONTINUOUS
 62
     56
 10
 365.73111678697109
 20
-116.91951865303157
 11
 437.73111678697109
 21
-116.91951865303157
 40
 18
 41
 0.8
  1
４～φ１４
 50
 0
 72
  5
  0
LINE
  8
85
  6
DASHED
 62
     2
 10
-287.00001699999962
 20
-182.00002599999999
 11
-287.00001699999962
 21
-188.00002599999999
  0
LINE
  8
85
  6
DASHED
 62
     2
 10
-273.00001699999962
 20
-182.00002599999999
 11
-273.00001699999962
 21
-188.00002599999999
  0
LINE
  8
85
  6
DASHED
 62
     2
 10
-287.00001699999962
 20
-188.00002599999999
 11
-273.00001699999962
 21
-188.00002599999999
  0
TEXT
  8
213
  6
CONTINUOUS
 62
     96
 10
-117.40208237009311
 20
 167.3961494480362
 11
 2.5979176299069167
 21
 167.3961494480362
 40
 24
 41
 0.8
  1
Ａ～Ａ矢視
 50
 0
 72
  5
  0
LINE
  8
213
  6
CONTINUOUS
 62
     2
 10
-127.00181854895023
 20
 157.7963792988493
 11
 12.198181451049759
 21
 157.7963792988493
  0
LINE
  8
213
  6
CONTINUOUS
 62
     7
 10
 266.24789270211147
 20
 653.40187283045498
 11
 315.15184627557591
 21
 718.84214540278185
  0
LINE
  8
213
  6
CONTINUOUS
 62
     7
 10
 266.24789270211147
 20
 653.40187283045498
 11
 277.52911540742667
 21
 663.28792433108356
  0
LINE
  8
213
  6
CONTINUOUS
 62
     7
 10
 266.24789270211147
 20
 653.40187283045498
 11
 272.5327830605666
 21
 667.02171692582544
  0
LINE
  8
213
  6
CONTINUOUS
 62
     7
 10
 315.15184627557591
 20
 718.84214540278185
 11
 388.95184788490127
 21
 718.84214540278185
  0
TEXT
  8
213
  6
CONTINUOUS
 62
     56
 10
 329.5518471338828
 20
 724.24214540278183
 11
 387.15184713388282
 21
 724.24214540278183
 40
 18
 41
 0.8
  1
Ｒ３／８
 50
 0
 72
  5
  0
LINE
  8
213
  6
CONTINUOUS
 62
     7
 10
 263.35308864652484
 20
 462.3680506722593
 11
 316.95184627557586
 21
 312.28624044121699
  0
LINE
  8
213
  6
CONTINUOUS
 62
     7
 10
 263.35308864652484
 20
 462.3680506722593
 11
 265.35073500709126
 21
 447.50166546878376
  0
LINE
  8
213
  6
CONTINUOUS
 62
     7
 10
 263.35308864652484
 20
 462.3680506722593
 11
 271.22473301752996
 21
 449.59944797280838
  0
LINE
  8
213
  6
CONTINUOUS
 62
     7
 10
 316.95184627557592
 20
 312.28624044121699
 11
 390.75184788490128
 21
 312.28624044121699
  0
TEXT
  8
213
  6
CONTINUOUS
 62
     56
 10
 331.35184713388281
 20
 317.68624044121697
 11
 388.95184713388284
 21
 317.68624044121697
 40
 18
 41
 0.8
  1
Ｒ３／８
 50
 0
 72
  5
  0
LINE
  8
85
  6
CENTER
 62
     7
 10
-196.46236906600416
 20
 500.40186133045506
 11
-167.71780429788851
 21
 500.40186133045506
  0
LINE
  8
5
  6
CONTINUOUS
 62
     4
 10
-175.40209729788887
 20
 509.05186133045515
 11
-183.37444752830368
 21
 509.05186133045515
  0
LINE
  8
5
  6
CONTINUOUS
 62
     4
 10
-175.40209729788887
 20
 491.75186133045526
 11
-183.37444752830368
 21
 491.75186133045514
  0
LINE
  8
5
  6
CONTINUOUS
 62
     4
 10
-183.37444752830368
 20
 491.75186133045514
 11
-183.37444752830368
 21
 509.05186133045515
  0
LINE
  8
5
  6
CONTINUOUS
 62
     4
 10
-192.14403278175985
 20
 493.22674612308174
 11
-192.14403278175985
 21
 507.57697653782844
  0
LINE
  8
5
  6
CONTINUOUS
 62
     4
 10
-183.37444752830368
 20
 507.57697653782833
 11
-192.14403278175985
 21
 507.57697653782844
  0
LINE
  8
5
  6
CONTINUOUS
 62
     4
 10
-183.37444752830368
 20
 493.22674612308185
 11
-192.14403278175985
 21
 493.22674612308174
  0
LINE
  8
5
  6
CONTINUOUS
 62
     4
 10
-180.98274245917924
 20
 491.75186133045514
 11
-180.98274245917924
 21
 509.05186133045515
  0
LINE
  8
5
  6
CONTINUOUS
 62
     4
 10
-178.59103739005479
 20
 491.75186133045514
 11
-178.59103739005479
 21
 509.05186133045515
  0
LINE
  8
213
  6
CONTINUOUS
 62
     7
 10
-192.14403278175985
 20
 493.22674612308174
 11
-270.61139872541025
 21
 418.96630373926013
  0
LINE
  8
213
  6
CONTINUOUS
 62
     7
 10
-192.14403278175985
 20
 493.22674612308174
 11
-204.94426935892972
 21
 485.40664743006738
  0
LINE
  8
213
  6
CONTINUOUS
 62
     7
 10
-192.14403278175985
 20
 493.22674612308174
 11
-200.65691007266599
 21
 480.87640522778759
  0
LINE
  8
213
  6
CONTINUOUS
 62
     7
 10
-270.61139872541025
 20
 418.96630373926013
 11
-373.21140076388906
 21
 418.96630373926013
  0
TEXT
  8
213
  6
CONTINUOUS
 62
     56
 10
-371.41140065660068
 20
 424.36630373926016
 11
-285.01140065660064
 21
 424.36630373926016
 40
 18
 41
 0.8
  1
ドレンプラグ
 50
 0
 72
  5
  0
TEXT
  8
213
  6
CONTINUOUS
 62
     56
 10
-381.41140065660068
 20
 389.36630373926016
 11
-295.01140065660064
 21
 389.36630373926016
 40
 18
 41
 0.8
  1
（Ｒ３／８）
 50
 0
 72
  5
  0
LINE
  8
85
  6
CONTINUOUS
 62
     4
 10
 248.94789270211149
 20
 463.40187283045498
 11
 248.94789270211149
 21
 491.401884830455
  0
LINE
  8
85
  6
CONTINUOUS
 62
     4
 10
 266.24789270211147
 20
 463.40187283045498
 11
 266.24789270211147
 21
 491.401884830455
  0
LINE
  8
85
  6
CONTINUOUS
 62
     4
 10
 248.94789270211149
 20
 478.40187283045498
 11
 266.24789270211147
 21
 478.40187283045498
  0
LINE
  8
85
  6
CONTINUOUS
 62
     4
 10
 248.94789270211149
 20
 478.40187283045498
 11
 251.44789270211149
 21
 463.40187283045498
  0
LINE
  8
85
  6
CONTINUOUS
 62
     4
 10
 266.24789170211147
 20
 478.40187283045498
 11
 263.74789170211147
 21
 463.40187283045498
  0
LINE
  8
85
  6
CONTINUOUS
 62
     4
 10
 248.94789270211149
 20
 463.40187283045498
 11
 266.24789270211147
 21
 463.40187283045498
  0
LINE
  8
187
  6
CONTINUOUS
 62
     6
 10
 272.24789270211147
 20
 653.40187283045498
 11
 354.03382764647074
 21
 653.40187283045498
  0
LINE
  8
187
  6
CONTINUOUS
 62
     6
 10
 272.24789270211147
 20
 463.40187283045498
 11
 354.03382764647074
 21
 463.40187283045498
  0
LINE
  8
187
  6
CONTINUOUS
 62
     6
 10
 348.03382764647074
 20
 653.40187283045498
 11
 348.03382764647074
 21
 463.40187283045498
  0
LINE
  8
187
  6
CONTINUOUS
 62
     6
 10
 348.03382764647074
 20
 653.40187283045498
 11
 344.91515228420434
 21
 638.72965881944788
  0
LINE
  8
187
  6
CONTINUOUS
 62
     6
 10
 348.03382764647074
 20
 653.40187283045498
 11
 351.15250300873714
 21
 638.72965881944788
  0
LINE
  8
187
  6
CONTINUOUS
 62
     6
 10
 348.03382764647074
 20
 463.40187283045498
 11
 351.15250300873714
 21
 478.07408684146208
  0
LINE
  8
187
  6
CONTINUOUS
 62
     6
 10
 348.03382764647074
 20
 463.40187283045498
 11
 344.91515228420434
 21
 478.07408684146208
  0
TEXT
  8
187
  6
CONTINUOUS
 62
     96
 10
 345.03382764647074
 20
 536.80187283045495
 11
 345.03382764647074
 21
 580.001872830455
 40
 18
 41
 0.8
  1
190
 50
 90.000001535234517
 72
  5
  0
LINE
  8
85
  6
CONTINUOUS
 62
     4
 10
-208.65001099999992
 20
 22.999989000000028
 11
-206.15001099999992
 21
 37.999989000000028
  0
LINE
  8
85
  6
CONTINUOUS
 62
     4
 10
-214.99999000000008
 20
-11.999995999999896
 11
-214.99999000000008
 21
-28.733428787079689
  0
LINE
  8
85
  6
CONTINUOUS
 62
     4
 10
-214.99999000000008
 20
-85.266593212920171
 11
-214.99999000000008
 21
-101.99998199999993
  0
LINE
  8
85
  6
CONTINUOUS
 62
     4
 10
-185.00003100000032
 20
-85.26659268225923
 11
-185.00003100000032
 21
-101.99998199999993
  0
LINE
  8
85
  6
CONTINUOUS
 62
     4
 10
-208.65001099999992
 20
 37.999989000000028
 11
-208.65001099999992
 21
 9.9999770000000581
  0
LINE
  8
85
  6
CONTINUOUS
 62
     4
 10
-208.65001099999992
 20
 37.999989000000028
 11
-191.35001099999994
 21
 37.999989000000028
  0
LINE
  8
85
  6
CONTINUOUS
 62
     4
 10
-208.65001099999992
 20
 22.999989000000028
 11
-191.35001099999994
 21
 22.999989000000028
  0
LINE
  8
85
  6
CONTINUOUS
 62
     4
 10
-191.35001099999994
 20
 37.999989000000028
 11
-191.35001099999994
 21
 9.9999770000000581
  0
LINE
  8
85
  6
CONTINUOUS
 62
     4
 10
-191.35001199999994
 20
 22.999989000000028
 11
-193.85001199999994
 21
 37.999989000000028
  0
LINE
  8
85
  6
CONTINUOUS
 62
     4
 10
-185.00003100000032
 20
-11.999995999999896
 11
-185.00003100000032
 21
-28.733429317740629
  0
LINE
  8
85
  6
CONTINUOUS
 62
     4
 10
-208.65001099999992
 20
-152.00001099999997
 11
-208.65001099999992
 21
-123.999999
  0
LINE
  8
85
  6
CONTINUOUS
 62
     4
 10
-208.65001099999992
 20
-137.00001099999997
 11
-191.35001099999994
 21
-137.00001099999997
  0
LINE
  8
85
  6
CONTINUOUS
 62
     4
 10
-208.65001099999992
 20
-137.00001099999997
 11
-206.15001099999992
 21
-152.00001099999997
  0
LINE
  8
85
  6
CONTINUOUS
 62
     4
 10
-208.65001099999992
 20
-152.00001099999997
 11
-191.35001099999994
 21
-152.00001099999997
  0
LINE
  8
85
  6
CONTINUOUS
 62
     4
 10
-191.35001099999994
 20
-152.00001099999997
 11
-191.35001099999994
 21
-123.999999
  0
LINE
  8
85
  6
CONTINUOUS
 62
     4
 10
-191.35001199999994
 20
-137.00001099999997
 11
-193.85001199999994
 21
-152.00001099999997
  0
LINE
  8
85
  6
CONTINUOUS
 62
     4
 10
-144.00001600000024
 20
-134.00000499999993
 11
-144.00001600000024
 21
-182.00002599999999
  0
TEXT
  8
209
  6
CONTINUOUS
 62
     96
 10
-505.74470862966018
 20
-455.15203231407918
 11
-140.94470862966006
 21
-455.15203231407918
 40
 24
 41
 0.8
  1
型式　　　２０ＷＳ１－０．４－９０Ｓ４
 50
 0
 72
  5
  0
LINE
  8
85
  6
CONTINUOUS
 62
     7
 10
-97.034502505368721
 20
-458.4759668527135
 11
-514.70515427339353
 21
-458.4759668527135
  0
TEXT
  8
208
  6
CONTINUOUS
 62
     3
 10
-35.550000125169753
 20
-793.5
 11
 58.049999874830235
 21
-793.5
 40
 21
 41
 0.8
  1
大塚
 50
 0
 72
  5
  0
TEXT
  8
208
  6
CONTINUOUS
 62
     3
 10
-57
 20
-825
 11
 79.5
 21
-825
 40
 21
 41
 0.8
  1
Ｈ９，１１／２７
 50
 0
 72
  5
  0
TEXT
  8
229
  6
CONTINUOUS
 62
     5
 10
 166.48739263504029
 20
-816.00000002768286
 11
 287.68739263504034
 21
-816.00000002768286
 40
 21
 41
 0.8
  1
株式会社
 50
 0
 72
  5
  0
TEXT
  8
229
  6
CONTINUOUS
 62
     5
 10
 136.58386438654952
 20
-756
 11
 458.18386438654954
 21
-756
 40
 24
 41
 0.8
  1
SINYO CO.,LTD
 50
 0
 72
  5
  0
TEXT
  8
224
  6
CONTINUOUS
 62
     5
 10
 338.69999967813493
 20
-822
 11
 505.49999967813488
 21
-822
 40
 48
 41
 0.8
  1
神洋
 50
 0
 72
  5
  0
TEXT
  8
209
  6
CONTINUOUS
 62
     96
 10
-410.54757692258329
 20
-500.6278192194186
 11
-122.54757692258316
 21
-500.6278192194186
 40
 24
 41
 0.8
  1
要求吐出量　　　４７．３Ｌ／Ｈ
 50
 0
 72
  5
  0
TEXT
  8
209
  6
CONTINUOUS
 62
     96
 10
-410.54757692258329
 20
-539.02781921941857
 11
-141.74757692258322
 21
-539.02781921941857
 40
 24
 41
 0.8
  1
要求吐出圧力　　６．４ＭＰａ
 50
 0
 72
  5
  0
LINE
  8
85
  6
CONTINUOUS
 62
     7
 10
-93.870355731225288
 20
-503.95175375805309
 11
-416.19477908733802
 21
-503.95175375805286
  0
LINE
  8
85
  6
CONTINUOUS
 62
     7
 10
-93.870355731225288
 20
-542.35175375805295
 11
-416.19477908733802
 21
-542.35175375805295
  0
LINE
  8
176
  6
CONTINUOUS
 62
     6
 10
 335.99999599999984
 20
-272.00000000000006
 11
 370.30374802215186
 21
-272.00000000000006
  0
LINE
  8
176
  6
CONTINUOUS
 62
     6
 10
 335.99999599999984
 20
-182.00002599999999
 11
 370.30374802215186
 21
-182.00002599999999
  0
LINE
  8
176
  6
CONTINUOUS
 62
     6
 10
 364.30374802215186
 20
-272.00000000000006
 11
 364.30374802215186
 21
-182.00002599999999
  0
LINE
  8
176
  6
CONTINUOUS
 62
     6
 10
 364.30374802215186
 20
-272.00000000000006
 11
 367.42242338441827
 21
-257.32778598899296
  0
LINE
  8
176
  6
CONTINUOUS
 62
     6
 10
 364.30374802215186
 20
-272.00000000000006
 11
 361.18507265988546
 21
-257.32778598899296
  0
LINE
  8
176
  6
CONTINUOUS
 62
     6
 10
 364.30374802215186
 20
-182.00002599999999
 11
 361.18507265988546
 21
-196.67224001100709
  0
LINE
  8
176
  6
CONTINUOUS
 62
     6
 10
 364.30374802215186
 20
-182.00002599999999
 11
 367.42242338441827
 21
-196.67224001100709
  0
TEXT
  8
176
  6
CONTINUOUS
 62
     96
 10
 364.30374802215186
 20
-241.400013
 11
 364.30374802215186
 21
-212.60001300000005
 40
 18
 41
 0.8
  1
90
 50
 90.000001535234517
 72
  5
  0
TEXT
  8
208
  6
CONTINUOUS
 62
     56
 10
-447.24834626688448
 20
-157.27905895379661
 11
-375.24834626688448
 21
-157.27905895379661
 40
 18
 41
 0.8
  1
取付ボルト
 50
 0
 72
  5
  0
INSERT
  8
0
  2
CADWIN-G0
 10
0.0
 20
0.0
  0
ENDSEC
  0
EOF
