  0
SECTION
  2
HEADER
  9
$INSBASE
 10
0.0
20
0.0
  9
$REGENMODE
 70
     1
  9
$DRAGMODE
 70
     1
  9
$DIMTAD
 70
     1
  9
$EXTMIN
 10
-210.000000
 20
-297.000000
 30
 0.0
  9
$EXTMAX
 10
210.000000
 20
297.000000
 30
 0.0
  9
$LUPREC
 70
    3
  9
$AUPREC
 70
    3
  9
$LTSCALE
 40
13.125000
  0
ENDSEC
  0
SECTION
  2
TABLES
  0
TABLE
  2
LTYPE
 70
     6
  0
LTYPE
  2
CONTINUOUS
 70
    64
  3
8;
 72
    65
 73
     0
 40
0.0
  0
LTYPE
  2
DASHED2
 70
    64
  3
_ _ _ _ _ _ _ _ _ _ _ _ _ _ _ _ _ _ _ _ _ _ 
 72
    65
 73
     2
 40
0.5
 49
0.25
 49
-0.25
  0
LTYPE
  2
DASHED
 70
    64
  3
__ __ __ __ __ __ __ __ __ __ __ __ __ __ __
 72
    65
 73
     2
 40
0.75
 49
0.5
 49
-0.25
  0
LTYPE
  2
DASHEDX2
 70
    64
  3
____  ____  ____  ____  ____  ____  ____  __
 72
    65
 73
     2
 40
1.5
 49
1.0
 49
-0.5
  0
LTYPE
  2
HIDDENX2
 70
    64
  3
____ ____ ____ ____ ____ ____ ____ ____ ____
 72
    65
 73
     2
 40
0.625
 49
0.5
 49
-0.125
  0
LTYPE
  2
CENTER
 70
    64
  3
____ _ ____ _ ____ _ ____ _ ____ _ ____ _ __
 72
    65
 73
     4
 40
2.0
 49
1.25
 49
-0.25
 49
0.25
 49
-0.25
  0
LTYPE
  2
CENTERX2
 70
    64
  3
________  __  ________  __  ________  __  __
 72
    65
 73
     4
 40
4.0
 49
2.5
 49
-0.5
 49
0.5
 49
-0.5
  0
LTYPE
  2
PHANTOM2
 70
    64
  3
___ _ _ ___ _ _ ___ _ _ ___ _ _ ___ _ _ ___ 
 72
    65
 73
     6
 40
1.25
 49
0.625
 49
-0.125
 49
0.125
 49
-0.125
 49
0.125
 49
-0.125
  0
LTYPE
  2
PHANTOM
 70
    64
  3
_____ _ _ _____ _ _ _____ _ _ _____ _ _ ____
 72
    65
 73
     6
 40
2.5
 49
1.25
 49
-0.25
 49
0.25
 49
-0.25
 49
0.25
 49
-0.25
  0
ENDTAB
  0
TABLE
  2
LAYER
 70
   255
  0
LAYER
  2
0
 70
    64
 62
     7
  6
CONTINUOUS
  0
LAYER
  2
1
 70
    64
 62
     7
  6
CONTINUOUS
  0
LAYER
  2
2
 70
    64
 62
     7
  6
CONTINUOUS
  0
LAYER
  2
3
 70
    64
 62
     7
  6
CONTINUOUS
  0
LAYER
  2
4
 70
    64
 62
     7
  6
CONTINUOUS
  0
LAYER
  2
5
 70
    64
 62
     7
  6
CONTINUOUS
  0
LAYER
  2
6
 70
    64
 62
     7
  6
CONTINUOUS
  0
LAYER
  2
7
 70
    64
 62
     7
  6
CONTINUOUS
  0
LAYER
  2
8
 70
    64
 62
     7
  6
CONTINUOUS
  0
LAYER
  2
9
 70
    64
 62
     7
  6
CONTINUOUS
  0
LAYER
  2
10
 70
    64
 62
     7
  6
CONTINUOUS
  0
LAYER
  2
11
 70
    64
 62
     7
  6
CONTINUOUS
  0
LAYER
  2
12
 70
    64
 62
     7
  6
CONTINUOUS
  0
LAYER
  2
13
 70
    64
 62
     7
  6
CONTINUOUS
  0
LAYER
  2
14
 70
    64
 62
     7
  6
CONTINUOUS
  0
LAYER
  2
15
 70
    64
 62
     7
  6
CONTINUOUS
  0
LAYER
  2
16
 70
    64
 62
     7
  6
CONTINUOUS
  0
LAYER
  2
17
 70
    64
 62
     7
  6
CONTINUOUS
  0
LAYER
  2
18
 70
    64
 62
     7
  6
CONTINUOUS
  0
LAYER
  2
19
 70
    64
 62
     7
  6
CONTINUOUS
  0
LAYER
  2
20
 70
    64
 62
     7
  6
CONTINUOUS
  0
LAYER
  2
21
 70
    64
 62
     7
  6
CONTINUOUS
  0
LAYER
  2
22
 70
    64
 62
     7
  6
CONTINUOUS
  0
LAYER
  2
23
 70
    64
 62
     7
  6
CONTINUOUS
  0
LAYER
  2
24
 70
    64
 62
     7
  6
CONTINUOUS
  0
LAYER
  2
25
 70
    64
 62
     7
  6
CONTINUOUS
  0
LAYER
  2
26
 70
    64
 62
     7
  6
CONTINUOUS
  0
LAYER
  2
27
 70
    64
 62
     7
  6
CONTINUOUS
  0
LAYER
  2
28
 70
    64
 62
     7
  6
CONTINUOUS
  0
LAYER
  2
29
 70
    64
 62
     7
  6
CONTINUOUS
  0
LAYER
  2
30
 70
    64
 62
     7
  6
CONTINUOUS
  0
LAYER
  2
31
 70
    64
 62
     7
  6
CONTINUOUS
  0
LAYER
  2
32
 70
    64
 62
     7
  6
CONTINUOUS
  0
LAYER
  2
33
 70
    64
 62
     7
  6
CONTINUOUS
  0
LAYER
  2
34
 70
    64
 62
     7
  6
CONTINUOUS
  0
LAYER
  2
35
 70
    64
 62
     7
  6
CONTINUOUS
  0
LAYER
  2
36
 70
    64
 62
     7
  6
CONTINUOUS
  0
LAYER
  2
37
 70
    64
 62
     7
  6
CONTINUOUS
  0
LAYER
  2
38
 70
    64
 62
     7
  6
CONTINUOUS
  0
LAYER
  2
39
 70
    64
 62
     7
  6
CONTINUOUS
  0
LAYER
  2
40
 70
    64
 62
     7
  6
CONTINUOUS
  0
LAYER
  2
41
 70
    64
 62
     7
  6
CONTINUOUS
  0
LAYER
  2
42
 70
    64
 62
     7
  6
CONTINUOUS
  0
LAYER
  2
43
 70
    64
 62
     7
  6
CONTINUOUS
  0
LAYER
  2
44
 70
    64
 62
     7
  6
CONTINUOUS
  0
LAYER
  2
45
 70
    64
 62
     7
  6
CONTINUOUS
  0
LAYER
  2
46
 70
    64
 62
     7
  6
CONTINUOUS
  0
LAYER
  2
47
 70
    64
 62
     7
  6
CONTINUOUS
  0
LAYER
  2
48
 70
    64
 62
     7
  6
CONTINUOUS
  0
LAYER
  2
49
 70
    64
 62
     7
  6
CONTINUOUS
  0
LAYER
  2
50
 70
    64
 62
     7
  6
CONTINUOUS
  0
LAYER
  2
51
 70
    64
 62
     7
  6
CONTINUOUS
  0
LAYER
  2
52
 70
    64
 62
     7
  6
CONTINUOUS
  0
LAYER
  2
53
 70
    64
 62
     7
  6
CONTINUOUS
  0
LAYER
  2
54
 70
    64
 62
     7
  6
CONTINUOUS
  0
LAYER
  2
55
 70
    64
 62
     7
  6
CONTINUOUS
  0
LAYER
  2
56
 70
    64
 62
     7
  6
CONTINUOUS
  0
LAYER
  2
57
 70
    64
 62
     7
  6
CONTINUOUS
  0
LAYER
  2
58
 70
    64
 62
     7
  6
CONTINUOUS
  0
LAYER
  2
59
 70
    64
 62
     7
  6
CONTINUOUS
  0
LAYER
  2
60
 70
    64
 62
     7
  6
CONTINUOUS
  0
LAYER
  2
61
 70
    64
 62
     7
  6
CONTINUOUS
  0
LAYER
  2
62
 70
    64
 62
     7
  6
CONTINUOUS
  0
LAYER
  2
63
 70
    64
 62
     7
  6
CONTINUOUS
  0
LAYER
  2
64
 70
    64
 62
     7
  6
CONTINUOUS
  0
LAYER
  2
65
 70
    64
 62
     7
  6
CONTINUOUS
  0
LAYER
  2
66
 70
    64
 62
     7
  6
CONTINUOUS
  0
LAYER
  2
67
 70
    64
 62
     7
  6
CONTINUOUS
  0
LAYER
  2
68
 70
    64
 62
     7
  6
CONTINUOUS
  0
LAYER
  2
69
 70
    64
 62
     7
  6
CONTINUOUS
  0
LAYER
  2
70
 70
    64
 62
     7
  6
CONTINUOUS
  0
LAYER
  2
71
 70
    64
 62
     7
  6
CONTINUOUS
  0
LAYER
  2
72
 70
    64
 62
     7
  6
CONTINUOUS
  0
LAYER
  2
73
 70
    64
 62
     7
  6
CONTINUOUS
  0
LAYER
  2
74
 70
    64
 62
     7
  6
CONTINUOUS
  0
LAYER
  2
75
 70
    64
 62
     7
  6
CONTINUOUS
  0
LAYER
  2
76
 70
    64
 62
     7
  6
CONTINUOUS
  0
LAYER
  2
77
 70
    64
 62
     7
  6
CONTINUOUS
  0
LAYER
  2
78
 70
    64
 62
     7
  6
CONTINUOUS
  0
LAYER
  2
79
 70
    64
 62
     7
  6
CONTINUOUS
  0
LAYER
  2
80
 70
    64
 62
     7
  6
CONTINUOUS
  0
LAYER
  2
81
 70
    64
 62
     7
  6
CONTINUOUS
  0
LAYER
  2
82
 70
    64
 62
     7
  6
CONTINUOUS
  0
LAYER
  2
83
 70
    64
 62
     7
  6
CONTINUOUS
  0
LAYER
  2
84
 70
    64
 62
     7
  6
CONTINUOUS
  0
LAYER
  2
85
 70
    64
 62
     7
  6
CONTINUOUS
  0
LAYER
  2
86
 70
    64
 62
     7
  6
CONTINUOUS
  0
LAYER
  2
87
 70
    64
 62
     7
  6
CONTINUOUS
  0
LAYER
  2
88
 70
    64
 62
     7
  6
CONTINUOUS
  0
LAYER
  2
89
 70
    64
 62
     7
  6
CONTINUOUS
  0
LAYER
  2
90
 70
    64
 62
     7
  6
CONTINUOUS
  0
LAYER
  2
91
 70
    64
 62
     7
  6
CONTINUOUS
  0
LAYER
  2
92
 70
    64
 62
     7
  6
CONTINUOUS
  0
LAYER
  2
93
 70
    64
 62
     7
  6
CONTINUOUS
  0
LAYER
  2
94
 70
    64
 62
     7
  6
CONTINUOUS
  0
LAYER
  2
95
 70
    64
 62
     7
  6
CONTINUOUS
  0
LAYER
  2
96
 70
    64
 62
     7
  6
CONTINUOUS
  0
LAYER
  2
97
 70
    64
 62
     7
  6
CONTINUOUS
  0
LAYER
  2
98
 70
    64
 62
     7
  6
CONTINUOUS
  0
LAYER
  2
99
 70
    64
 62
     7
  6
CONTINUOUS
  0
LAYER
  2
100
 70
    64
 62
     7
  6
CONTINUOUS
  0
LAYER
  2
101
 70
    64
 62
     7
  6
CONTINUOUS
  0
LAYER
  2
102
 70
    64
 62
     7
  6
CONTINUOUS
  0
LAYER
  2
103
 70
    64
 62
     7
  6
CONTINUOUS
  0
LAYER
  2
104
 70
    64
 62
     7
  6
CONTINUOUS
  0
LAYER
  2
105
 70
    64
 62
     7
  6
CONTINUOUS
  0
LAYER
  2
106
 70
    64
 62
     7
  6
CONTINUOUS
  0
LAYER
  2
107
 70
    64
 62
     7
  6
CONTINUOUS
  0
LAYER
  2
108
 70
    64
 62
     7
  6
CONTINUOUS
  0
LAYER
  2
109
 70
    64
 62
     7
  6
CONTINUOUS
  0
LAYER
  2
110
 70
    64
 62
     7
  6
CONTINUOUS
  0
LAYER
  2
111
 70
    64
 62
     7
  6
CONTINUOUS
  0
LAYER
  2
112
 70
    64
 62
     7
  6
CONTINUOUS
  0
LAYER
  2
113
 70
    64
 62
     7
  6
CONTINUOUS
  0
LAYER
  2
114
 70
    64
 62
     7
  6
CONTINUOUS
  0
LAYER
  2
115
 70
    64
 62
     7
  6
CONTINUOUS
  0
LAYER
  2
116
 70
    64
 62
     7
  6
CONTINUOUS
  0
LAYER
  2
117
 70
    64
 62
     7
  6
CONTINUOUS
  0
LAYER
  2
118
 70
    64
 62
     7
  6
CONTINUOUS
  0
LAYER
  2
119
 70
    64
 62
     7
  6
CONTINUOUS
  0
LAYER
  2
120
 70
    64
 62
     7
  6
CONTINUOUS
  0
LAYER
  2
121
 70
    64
 62
     7
  6
CONTINUOUS
  0
LAYER
  2
122
 70
    64
 62
     7
  6
CONTINUOUS
  0
LAYER
  2
123
 70
    64
 62
     7
  6
CONTINUOUS
  0
LAYER
  2
124
 70
    64
 62
     7
  6
CONTINUOUS
  0
LAYER
  2
125
 70
    64
 62
     7
  6
CONTINUOUS
  0
LAYER
  2
126
 70
    64
 62
     7
  6
CONTINUOUS
  0
LAYER
  2
127
 70
    64
 62
     7
  6
CONTINUOUS
  0
LAYER
  2
128
 70
    64
 62
     7
  6
CONTINUOUS
  0
LAYER
  2
129
 70
    64
 62
     7
  6
CONTINUOUS
  0
LAYER
  2
130
 70
    64
 62
     7
  6
CONTINUOUS
  0
LAYER
  2
131
 70
    64
 62
     7
  6
CONTINUOUS
  0
LAYER
  2
132
 70
    64
 62
     7
  6
CONTINUOUS
  0
LAYER
  2
133
 70
    64
 62
     7
  6
CONTINUOUS
  0
LAYER
  2
134
 70
    64
 62
     7
  6
CONTINUOUS
  0
LAYER
  2
135
 70
    64
 62
     7
  6
CONTINUOUS
  0
LAYER
  2
136
 70
    64
 62
     7
  6
CONTINUOUS
  0
LAYER
  2
137
 70
    64
 62
     7
  6
CONTINUOUS
  0
LAYER
  2
138
 70
    64
 62
     7
  6
CONTINUOUS
  0
LAYER
  2
139
 70
    64
 62
     7
  6
CONTINUOUS
  0
LAYER
  2
140
 70
    64
 62
     7
  6
CONTINUOUS
  0
LAYER
  2
141
 70
    64
 62
     7
  6
CONTINUOUS
  0
LAYER
  2
142
 70
    64
 62
     7
  6
CONTINUOUS
  0
LAYER
  2
143
 70
    64
 62
     7
  6
CONTINUOUS
  0
LAYER
  2
144
 70
    64
 62
     7
  6
CONTINUOUS
  0
LAYER
  2
145
 70
    64
 62
     7
  6
CONTINUOUS
  0
LAYER
  2
146
 70
    64
 62
     7
  6
CONTINUOUS
  0
LAYER
  2
147
 70
    64
 62
     7
  6
CONTINUOUS
  0
LAYER
  2
148
 70
    64
 62
     7
  6
CONTINUOUS
  0
LAYER
  2
149
 70
    64
 62
     7
  6
CONTINUOUS
  0
LAYER
  2
150
 70
    64
 62
     7
  6
CONTINUOUS
  0
LAYER
  2
151
 70
    64
 62
     7
  6
CONTINUOUS
  0
LAYER
  2
152
 70
    64
 62
     7
  6
CONTINUOUS
  0
LAYER
  2
153
 70
    64
 62
     7
  6
CONTINUOUS
  0
LAYER
  2
154
 70
    64
 62
     7
  6
CONTINUOUS
  0
LAYER
  2
155
 70
    64
 62
     7
  6
CONTINUOUS
  0
LAYER
  2
156
 70
    64
 62
     7
  6
CONTINUOUS
  0
LAYER
  2
157
 70
    64
 62
     7
  6
CONTINUOUS
  0
LAYER
  2
158
 70
    64
 62
     7
  6
CONTINUOUS
  0
LAYER
  2
159
 70
    64
 62
     7
  6
CONTINUOUS
  0
LAYER
  2
160
 70
    64
 62
     7
  6
CONTINUOUS
  0
LAYER
  2
161
 70
    64
 62
     7
  6
CONTINUOUS
  0
LAYER
  2
162
 70
    64
 62
     7
  6
CONTINUOUS
  0
LAYER
  2
163
 70
    64
 62
     7
  6
CONTINUOUS
  0
LAYER
  2
164
 70
    64
 62
     7
  6
CONTINUOUS
  0
LAYER
  2
165
 70
    64
 62
     7
  6
CONTINUOUS
  0
LAYER
  2
166
 70
    64
 62
     7
  6
CONTINUOUS
  0
LAYER
  2
167
 70
    64
 62
     7
  6
CONTINUOUS
  0
LAYER
  2
168
 70
    64
 62
     7
  6
CONTINUOUS
  0
LAYER
  2
169
 70
    64
 62
     7
  6
CONTINUOUS
  0
LAYER
  2
170
 70
    64
 62
     7
  6
CONTINUOUS
  0
LAYER
  2
171
 70
    64
 62
     7
  6
CONTINUOUS
  0
LAYER
  2
172
 70
    64
 62
     7
  6
CONTINUOUS
  0
LAYER
  2
173
 70
    64
 62
     7
  6
CONTINUOUS
  0
LAYER
  2
174
 70
    64
 62
     7
  6
CONTINUOUS
  0
LAYER
  2
175
 70
    64
 62
     7
  6
CONTINUOUS
  0
LAYER
  2
176
 70
    64
 62
     7
  6
CONTINUOUS
  0
LAYER
  2
177
 70
    64
 62
     7
  6
CONTINUOUS
  0
LAYER
  2
178
 70
    64
 62
     7
  6
CONTINUOUS
  0
LAYER
  2
179
 70
    64
 62
     7
  6
CONTINUOUS
  0
LAYER
  2
180
 70
    64
 62
     7
  6
CONTINUOUS
  0
LAYER
  2
181
 70
    64
 62
     7
  6
CONTINUOUS
  0
LAYER
  2
182
 70
    64
 62
     7
  6
CONTINUOUS
  0
LAYER
  2
183
 70
    64
 62
     7
  6
CONTINUOUS
  0
LAYER
  2
184
 70
    64
 62
     7
  6
CONTINUOUS
  0
LAYER
  2
185
 70
    64
 62
     7
  6
CONTINUOUS
  0
LAYER
  2
186
 70
    64
 62
     7
  6
CONTINUOUS
  0
LAYER
  2
187
 70
    64
 62
     7
  6
CONTINUOUS
  0
LAYER
  2
188
 70
    64
 62
     7
  6
CONTINUOUS
  0
LAYER
  2
189
 70
    64
 62
     7
  6
CONTINUOUS
  0
LAYER
  2
190
 70
    64
 62
     7
  6
CONTINUOUS
  0
LAYER
  2
191
 70
    64
 62
     7
  6
CONTINUOUS
  0
LAYER
  2
192
 70
    64
 62
     7
  6
CONTINUOUS
  0
LAYER
  2
193
 70
    64
 62
     7
  6
CONTINUOUS
  0
LAYER
  2
194
 70
    64
 62
     7
  6
CONTINUOUS
  0
LAYER
  2
195
 70
    64
 62
     7
  6
CONTINUOUS
  0
LAYER
  2
196
 70
    64
 62
     7
  6
CONTINUOUS
  0
LAYER
  2
197
 70
    64
 62
     7
  6
CONTINUOUS
  0
LAYER
  2
198
 70
    64
 62
     7
  6
CONTINUOUS
  0
LAYER
  2
199
 70
    64
 62
     7
  6
CONTINUOUS
  0
LAYER
  2
200
 70
    64
 62
     7
  6
CONTINUOUS
  0
LAYER
  2
201
 70
    64
 62
     7
  6
CONTINUOUS
  0
LAYER
  2
202
 70
    64
 62
     7
  6
CONTINUOUS
  0
LAYER
  2
203
 70
    64
 62
     7
  6
CONTINUOUS
  0
LAYER
  2
204
 70
    64
 62
     7
  6
CONTINUOUS
  0
LAYER
  2
205
 70
    64
 62
     7
  6
CONTINUOUS
  0
LAYER
  2
206
 70
    64
 62
     7
  6
CONTINUOUS
  0
LAYER
  2
207
 70
    64
 62
     7
  6
CONTINUOUS
  0
LAYER
  2
208
 70
    64
 62
     7
  6
CONTINUOUS
  0
LAYER
  2
209
 70
    64
 62
     7
  6
CONTINUOUS
  0
LAYER
  2
210
 70
    64
 62
     7
  6
CONTINUOUS
  0
LAYER
  2
211
 70
    64
 62
     7
  6
CONTINUOUS
  0
LAYER
  2
212
 70
    64
 62
     7
  6
CONTINUOUS
  0
LAYER
  2
213
 70
    64
 62
     7
  6
CONTINUOUS
  0
LAYER
  2
214
 70
    64
 62
     7
  6
CONTINUOUS
  0
LAYER
  2
215
 70
    64
 62
     7
  6
CONTINUOUS
  0
LAYER
  2
216
 70
    64
 62
     7
  6
CONTINUOUS
  0
LAYER
  2
217
 70
    64
 62
     7
  6
CONTINUOUS
  0
LAYER
  2
218
 70
    64
 62
     7
  6
CONTINUOUS
  0
LAYER
  2
219
 70
    64
 62
     7
  6
CONTINUOUS
  0
LAYER
  2
220
 70
    64
 62
     7
  6
CONTINUOUS
  0
LAYER
  2
221
 70
    64
 62
     7
  6
CONTINUOUS
  0
LAYER
  2
222
 70
    64
 62
     7
  6
CONTINUOUS
  0
LAYER
  2
223
 70
    64
 62
     7
  6
CONTINUOUS
  0
LAYER
  2
224
 70
    64
 62
     7
  6
CONTINUOUS
  0
LAYER
  2
225
 70
    64
 62
     7
  6
CONTINUOUS
  0
LAYER
  2
226
 70
    64
 62
     7
  6
CONTINUOUS
  0
LAYER
  2
227
 70
    64
 62
     7
  6
CONTINUOUS
  0
LAYER
  2
228
 70
    64
 62
     7
  6
CONTINUOUS
  0
LAYER
  2
229
 70
    64
 62
     7
  6
CONTINUOUS
  0
LAYER
  2
230
 70
    64
 62
     7
  6
CONTINUOUS
  0
LAYER
  2
231
 70
    64
 62
     7
  6
CONTINUOUS
  0
LAYER
  2
232
 70
    64
 62
     7
  6
CONTINUOUS
  0
LAYER
  2
233
 70
    64
 62
     7
  6
CONTINUOUS
  0
LAYER
  2
234
 70
    64
 62
     7
  6
CONTINUOUS
  0
LAYER
  2
235
 70
    64
 62
     7
  6
CONTINUOUS
  0
LAYER
  2
236
 70
    64
 62
     7
  6
CONTINUOUS
  0
LAYER
  2
237
 70
    64
 62
     7
  6
CONTINUOUS
  0
LAYER
  2
238
 70
    64
 62
     7
  6
CONTINUOUS
  0
LAYER
  2
239
 70
    64
 62
     7
  6
CONTINUOUS
  0
LAYER
  2
240
 70
    64
 62
     7
  6
CONTINUOUS
  0
LAYER
  2
241
 70
    64
 62
     7
  6
CONTINUOUS
  0
LAYER
  2
242
 70
    64
 62
     7
  6
CONTINUOUS
  0
LAYER
  2
243
 70
    64
 62
     7
  6
CONTINUOUS
  0
LAYER
  2
244
 70
    64
 62
     7
  6
CONTINUOUS
  0
LAYER
  2
245
 70
    64
 62
     7
  6
CONTINUOUS
  0
LAYER
  2
246
 70
    64
 62
     7
  6
CONTINUOUS
  0
LAYER
  2
247
 70
    64
 62
     7
  6
CONTINUOUS
  0
LAYER
  2
248
 70
    64
 62
     7
  6
CONTINUOUS
  0
LAYER
  2
249
 70
    64
 62
     7
  6
CONTINUOUS
  0
LAYER
  2
250
 70
    64
 62
     7
  6
CONTINUOUS
  0
LAYER
  2
251
 70
    64
 62
     7
  6
CONTINUOUS
  0
LAYER
  2
252
 70
    64
 62
     7
  6
CONTINUOUS
  0
LAYER
  2
253
 70
    64
 62
     7
  6
CONTINUOUS
  0
LAYER
  2
254
 70
    64
 62
     7
  6
CONTINUOUS
  0
LAYER
  2
255
 70
    64
 62
     7
  6
CONTINUOUS
  0
ENDTAB
  0
TABLE
  2
STYLE
 70
     2
  0
STYLE
  2
STANDARD
 70
    64
 40
0.0
 41
1.0
 50
0.0
 71
     0
 42
3.000000
  3
TXT
  4
BIGFONT
  0
ENDTAB
  0
ENDSEC
  0
SECTION
  2
BLOCKS
  0
BLOCK
  8
0
  2
CADWIN-G0
 70
    0
 10
0.0
 20
0.0
  0
LINE
  8
0
  6
CONTINUOUS
 62
     3
 10
-89.843407860326778
 20
 177.12273016727829
 11
-89.843407860326778
 21
 155.12273016727829
  0
LINE
  8
0
  6
CONTINUOUS
 62
     3
 10
-65.843407860326778
 20
 155.12273016727829
 11
-65.843407860326778
 21
 177.12273016727829
  0
LINE
  8
0
  6
CONTINUOUS
 62
     3
 10
-65.843407860326778
 20
 176.12273016727829
 11
-89.843407860326778
 21
 176.12273016727829
  0
LINE
  8
0
  6
CONTINUOUS
 62
     3
 10
-89.843407860326778
 20
 156.12273016727829
 11
-65.843407860326778
 21
 156.12273016727829
  0
LINE
  8
0
  6
CONTINUOUS
 62
     3
 10
-73.343407860326778
 20
 156.12273016727829
 11
-65.843407860326778
 21
 156.12273016727829
  0
ENDBLK
  8
0
  0
BLOCK
  8
0
  2
CADWIN-G1
 70
    0
 10
0.0
 20
0.0
  0
LINE
  8
0
  6
CONTINUOUS
 62
     3
 10
-89.843407860326778
 20
 125.12271216727854
 11
-89.843407860326778
 21
 103.12271216727852
  0
LINE
  8
0
  6
CONTINUOUS
 62
     3
 10
-65.843407860326778
 20
 103.12271216727852
 11
-65.843407860326778
 21
 125.12271216727854
  0
LINE
  8
0
  6
CONTINUOUS
 62
     3
 10
-65.843407860326778
 20
 124.12271216727854
 11
-89.843407860326778
 21
 124.12271216727854
  0
LINE
  8
0
  6
CONTINUOUS
 62
     3
 10
-89.843407860326778
 20
 104.12271216727852
 11
-65.843407860326778
 21
 104.12271216727852
  0
LINE
  8
0
  6
CONTINUOUS
 62
     3
 10
-73.343407860326778
 20
 104.12271216727852
 11
-65.843407860326778
 21
 104.12271216727852
  0
ENDBLK
  8
0
  0
BLOCK
  8
0
  2
CADWIN-G2
 70
    0
 10
0.0
 20
0.0
  0
LINE
  8
0
  6
CONTINUOUS
 62
     3
 10
 28.156592139673215
 20
 135.1227211672784
 11
 28.156592139673215
 21
 145.1227211672784
  0
LINE
  8
0
  6
CONTINUOUS
 62
     3
 10
 28.156592139673215
 20
 145.1227211672784
 11
 38.156592139673215
 21
 145.1227211672784
  0
LINE
  8
0
  6
CONTINUOUS
 62
     3
 10
 38.156592139673215
 20
 145.1227211672784
 11
 38.156592139673215
 21
 135.1227211672784
  0
LINE
  8
0
  6
CONTINUOUS
 62
     3
 10
 38.156592139673215
 20
 135.1227211672784
 11
 28.156592139673215
 21
 135.1227211672784
  0
ENDBLK
  8
0
  0
BLOCK
  8
0
  2
CADWIN-G3
 70
    0
 10
0.0
 20
0.0
  0
LINE
  8
0
  6
CONTINUOUS
 62
     4
 10
-2.5933878603263807
 20
 191.12272116727837
 11
-2.5933878603263807
 21
 194.63197343846718
  0
LINE
  8
0
  6
CONTINUOUS
 62
     4
 10
-5.480139206274508
 20
 191.12272116727837
 11
-5.480139206274508
 21
 194.63197343846718
  0
LINE
  8
0
  6
CONTINUOUS
 62
     4
 10
-2.5933878603263807
 20
 191.12272116727837
 11
-14.093387860326381
 21
 191.12272116727837
  0
LINE
  8
0
  6
CONTINUOUS
 62
     4
 10
-4.0367635333004444
 20
 195.12272116727837
 11
-12.650012187352324
 21
 195.12272116727837
  0
LINE
  8
0
  6
CONTINUOUS
 62
     4
 10
-14.093387860326381
 20
 191.12272116727837
 11
-14.093387860326381
 21
 194.63197343846718
  0
LINE
  8
0
  6
CONTINUOUS
 62
     4
 10
-11.206636514378253
 20
 191.12272116727837
 11
-11.206636514378253
 21
 194.63197343846718
  0
ARC
  8
0
  6
CONTINUOUS
 62
     4
 10
-4.0367635333004444
 20
 192.75473601908743
 40
 2.3679851481909666
 50
 52.443934449705765
 51
 127.55606862076327
  0
ARC
  8
0
  6
CONTINUOUS
 62
     4
 10
-12.650012187352324
 20
 192.75473601908743
 40
 2.3679851481909666
 50
 52.443934449705765
 51
 127.55606862076327
  0
ARC
  8
0
  6
CONTINUOUS
 62
     4
 10
-8.3433878603263807
 20
 186.52459050582183
 40
 8.5981306614565618
 50
 70.548533640263244
 51
 109.45146943020578
  0
LINE
  8
0
  6
CONTINUOUS
 62
     4
 10
-5.3433878603263807
 20
 190.87272116727837
 11
-5.3433878603263807
 21
 167.12272116727837
  0
LINE
  8
0
  6
CONTINUOUS
 62
     7
 10
-5.3433878603263807
 20
 190.87272116727837
 11
-5.8433878603263807
 21
 190.00669576349395
  0
LINE
  8
0
  6
CONTINUOUS
 62
     7
 10
-5.8433878603263807
 20
 190.00669576349395
 11
-5.8433878603263807
 21
 166.62272116727837
  0
LINE
  8
0
  6
CONTINUOUS
 62
     4
 10
-5.3433878603263807
 20
 167.12272116727837
 11
-11.343387860326381
 21
 167.12272116727837
  0
LINE
  8
0
  6
CONTINUOUS
 62
     4
 10
-5.3433878603263807
 20
 190.00669576349395
 11
-11.343387860326381
 21
 190.00669576349395
  0
LINE
  8
0
  6
CONTINUOUS
 62
     4
 10
-11.343387860326381
 20
 190.87272116727837
 11
-11.343387860326381
 21
 167.12272116727837
  0
LINE
  8
0
  6
CONTINUOUS
 62
     7
 10
-11.343387860326381
 20
 190.87272116727837
 11
-10.843387860326381
 21
 190.00669576349395
  0
LINE
  8
0
  6
CONTINUOUS
 62
     7
 10
-10.843387860326381
 20
 190.00669576349395
 11
-10.843387860326381
 21
 166.62272116727837
  0
ARC
  8
0
  6
CONTINUOUS
 62
     4
 10
-5.0933878603263807
 20
 190.87272116727837
 40
 0.25
 50
 90.000001535234517
 51
 180.00000307046903
  0
ARC
  8
0
  6
CONTINUOUS
 62
     4
 10
-11.593387860326381
 20
 190.87272116727837
 40
 0.25
 50
 0
 51
 90.000001535234517
  0
LINE
  8
0
  6
CONTINUOUS
 62
     4
 10
-6.3433878603263807
 20
 166.12272116727837
 11
-10.343387860326381
 21
 166.12272116727837
  0
LINE
  8
0
  6
CONTINUOUS
 62
     4
 10
-5.3433878603263807
 20
 167.12272116727837
 11
-6.3433878603263807
 21
 166.12272116727837
  0
LINE
  8
0
  6
CONTINUOUS
 62
     4
 10
-11.343387860326381
 20
 167.12272116727837
 11
-10.343387860326381
 21
 166.12272116727837
  0
ENDBLK
  8
0
  0
BLOCK
  8
0
  2
CADWIN-G4
 70
    0
 10
0.0
 20
0.0
  0
LINE
  8
192
  6
CONTINUOUS
 62
     7
 10
-86.343413860326535
 20
 63.606998577039114
 11
-128.37675115760879
 21
 39.339039973514872
  0
LINE
  8
192
  6
CONTINUOUS
 62
     7
 10
-86.343413860326535
 20
 63.606998577039114
 11
-91.098696441802304
 21
 62.061913605164392
  0
LINE
  8
192
  6
CONTINUOUS
 62
     7
 10
-86.343413860326535
 20
 63.606998577039114
 11
-90.059137987713513
 21
 60.261345545244822
  0
CIRCLE
  8
192
  6
CONTINUOUS
 62
     7
 10
-133.27879154911926
 20
 36.508845633897892
 40
 5.6603886792339626
  0
TEXT
  8
192
  6
CONTINUOUS
 62
     56
 10
-135.67879154911927
 20
 33.508845633897892
 11
-130.87879154911926
 21
 33.508845633897892
 40
 6
 41
 0.8
  1
1
 50
 0
 72
  5
  0
ENDBLK
  8
0
  0
BLOCK
  8
0
  2
CADWIN-G5
 70
    0
 10
0.0
 20
0.0
  0
LINE
  8
192
  6
CONTINUOUS
 62
     7
 10
-96.810609602429366
 20
 186.73946841325767
 11
-128.37675115760879
 21
 204.96418873741834
  0
LINE
  8
192
  6
CONTINUOUS
 62
     7
 10
-96.810609602429366
 20
 186.73946841325767
 11
-100.52633372981634
 21
 190.08512144505195
  0
LINE
  8
192
  6
CONTINUOUS
 62
     7
 10
-96.810609602429366
 20
 186.73946841325767
 11
-101.56589218390513
 21
 188.2845533851324
  0
CIRCLE
  8
192
  6
CONTINUOUS
 62
     7
 10
-133.27879154911926
 20
 207.79438307703532
 40
 5.6603886792339626
  0
TEXT
  8
192
  6
CONTINUOUS
 62
     56
 10
-135.67879154911927
 20
 204.79438307703532
 11
-130.87879154911926
 21
 204.79438307703532
 40
 6
 41
 0.8
  1
2
 50
 0
 72
  5
  0
ENDBLK
  8
0
  0
BLOCK
  8
0
  2
CADWIN-G6
 70
    0
 10
0.0
 20
0.0
  0
LINE
  8
192
  6
CONTINUOUS
 62
     7
 10
-89.843407860326778
 20
 176.62273016727829
 11
-111.92410114207993
 21
 176.62273016727829
  0
LINE
  8
192
  6
CONTINUOUS
 62
     7
 10
-89.843407860326778
 20
 176.62273016727829
 11
-94.734145863995806
 21
 177.66228862136708
  0
LINE
  8
192
  6
CONTINUOUS
 62
     7
 10
-89.843407860326778
 20
 176.62273016727829
 11
-94.734145863995806
 21
 175.5831717131895
  0
LINE
  8
192
  6
CONTINUOUS
 62
     7
 10
-111.92410114207993
 20
 176.62273016727829
 11
-128.45658116604505
 21
 186.7850894713597
  0
CIRCLE
  8
192
  6
CONTINUOUS
 62
     7
 10
-133.27879154911926
 20
 189.74925664299008
 40
 5.6603886792339626
  0
TEXT
  8
192
  6
CONTINUOUS
 62
     56
 10
-135.67879154911927
 20
 186.74925664299008
 11
-130.87879154911926
 21
 186.74925664299008
 40
 6
 41
 0.8
  1
3
 50
 0
 72
  5
  0
ENDBLK
  8
0
  0
BLOCK
  8
0
  2
CADWIN-G7
 70
    0
 10
0.0
 20
0.0
  0
LINE
  8
192
  6
CONTINUOUS
 62
     7
 10
-89.843407860326778
 20
 159.01036815186265
 11
-128.37675115760879
 21
 136.76313202640065
  0
LINE
  8
192
  6
CONTINUOUS
 62
     7
 10
-89.843407860326778
 20
 159.01036815186265
 11
-94.598690441802546
 21
 157.46528317998792
  0
LINE
  8
192
  6
CONTINUOUS
 62
     7
 10
-89.843407860326778
 20
 159.01036815186265
 11
-93.559131987713755
 21
 155.66471512006837
  0
CIRCLE
  8
192
  6
CONTINUOUS
 62
     7
 10
-133.27879154911926
 20
 133.93293768678367
 40
 5.6603886792339626
  0
TEXT
  8
192
  6
CONTINUOUS
 62
     56
 10
-135.67879154911927
 20
 130.93293768678367
 11
-130.87879154911926
 21
 130.93293768678367
 40
 6
 41
 0.8
  1
5
 50
 0
 72
  5
  0
ENDBLK
  8
0
  0
BLOCK
  8
0
  2
CADWIN-G8
 70
    0
 10
0.0
 20
0.0
  0
LINE
  8
192
  6
CONTINUOUS
 62
     7
 10
-79.746458854417213
 20
 162.31298478121374
 11
-116.98223223713211
 21
 122.76525275492828
  0
LINE
  8
192
  6
CONTINUOUS
 62
     7
 10
-79.746458854417213
 20
 162.31298478121374
 11
-83.855953580132095
 21
 159.46481816050462
  0
LINE
  8
192
  6
CONTINUOUS
 62
     7
 10
-79.746458854417213
 20
 162.31298478121374
 11
-82.342215364072487
 21
 158.03957301278066
  0
LINE
  8
192
  6
CONTINUOUS
 62
     7
 10
-116.98223223713211
 20
 122.76525275492828
 11
-127.74570107907515
 21
 120.44316739153612
  0
CIRCLE
  8
192
  6
CONTINUOUS
 62
     7
 10
-133.27879154911912
 20
 119.24947151305254
 40
 5.6603886792339626
  0
TEXT
  8
192
  6
CONTINUOUS
 62
     56
 10
-135.67879154911913
 20
 116.24947151305254
 11
-130.87879154911911
 21
 116.24947151305254
 40
 6
 41
 0.8
  1
6
 50
 0
 72
  5
  0
ENDBLK
  8
0
  0
BLOCK
  8
0
  2
CADWIN-G9
 70
    0
 10
0.0
 20
0.0
  0
LINE
  8
192
  6
CONTINUOUS
 62
     7
 10
-99.843407860326835
 20
 114.49282630345624
 11
-128.37675115760879
 21
 98.019092869890471
  0
LINE
  8
192
  6
CONTINUOUS
 62
     7
 10
-99.843407860326835
 20
 114.49282630345624
 11
-104.5986904418026
 21
 112.9477413315815
  0
LINE
  8
192
  6
CONTINUOUS
 62
     7
 10
-99.843407860326835
 20
 114.49282630345624
 11
-103.5591319877138
 21
 111.14717327166194
  0
CIRCLE
  8
192
  6
CONTINUOUS
 62
     7
 10
-133.27879154911926
 20
 95.188898530273491
 40
 5.6603886792339626
  0
TEXT
  8
192
  6
CONTINUOUS
 62
     56
 10
-135.67879154911927
 20
 92.188898530273491
 11
-130.87879154911926
 21
 92.188898530273491
 40
 6
 41
 0.8
  1
7
 50
 0
 72
  5
  0
ENDBLK
  8
0
  0
BLOCK
  8
0
  2
CADWIN-G10
 70
    0
 10
0.0
 20
0.0
  0
LINE
  8
192
  6
CONTINUOUS
 62
     7
 10
-51.736785137253477
 20
 156.12272116727837
 11
-51.736785137253477
 21
 218.49638345465252
  0
LINE
  8
192
  6
CONTINUOUS
 62
     7
 10
-51.736785137253477
 20
 156.12272116727837
 11
-50.697226683164679
 21
 161.01345917094739
  0
LINE
  8
192
  6
CONTINUOUS
 62
     7
 10
-51.736785137253477
 20
 156.12272116727837
 11
-52.776343591342275
 21
 161.01345917094739
  0
CIRCLE
  8
192
  6
CONTINUOUS
 62
     7
 10
-51.736785137253477
 20
 224.15677213388648
 40
 5.6603886792339626
  0
TEXT
  8
192
  6
CONTINUOUS
 62
     56
 10
-54.136785137253476
 20
 221.15677213388648
 11
-49.336785137253479
 21
 221.15677213388648
 40
 6
 41
 0.8
  1
8
 50
 0
 72
  5
  0
ENDBLK
  8
0
  0
BLOCK
  8
0
  2
CADWIN-G11
 70
    0
 10
0.0
 20
0.0
  0
LINE
  8
192
  6
CONTINUOUS
 62
     7
 10
-42.778399498287868
 20
 157.86471840554103
 11
-36.220079994343266
 21
 218.52917381703011
  0
LINE
  8
192
  6
CONTINUOUS
 62
     7
 10
-42.778399498287868
 20
 157.86471840554103
 11
-41.219197622709018
 21
 162.61539093805592
  0
LINE
  8
192
  6
CONTINUOUS
 62
     7
 10
-42.778399498287868
 20
 157.86471840554103
 11
-43.286270305532497
 21
 162.83885825511791
  0
CIRCLE
  8
192
  6
CONTINUOUS
 62
     7
 10
-35.611690987115566
 20
 224.15677213388648
 40
 5.6603886792339626
  0
TEXT
  8
192
  6
CONTINUOUS
 62
     56
 10
-38.011690987115564
 20
 221.15677213388648
 11
-33.211690987115567
 21
 221.15677213388648
 40
 6
 41
 0.8
  1
9
 50
 0
 72
  5
  0
ENDBLK
  8
0
  0
BLOCK
  8
0
  2
CADWIN-G12
 70
    0
 10
0.0
 20
0.0
  0
LINE
  8
192
  6
CONTINUOUS
 62
     7
 10
-14.82823630471519
 20
 156.12272116727837
 11
-29.878324178177401
 21
 181.51485649241025
  0
LINE
  8
192
  6
CONTINUOUS
 62
     7
 10
-14.82823630471519
 20
 156.12272116727837
 11
-16.427622828954853
 21
 160.86001604369051
  0
LINE
  8
192
  6
CONTINUOUS
 62
     7
 10
-14.82823630471519
 20
 156.12272116727837
 11
-18.216180014241175
 21
 159.79992627728834
  0
LINE
  8
192
  6
CONTINUOUS
 62
     7
 10
-29.878324178177401
 20
 181.51485649241025
 11
-22.083691801557627
 21
 218.61730660512112
  0
CIRCLE
  8
192
  6
CONTINUOUS
 62
     7
 10
-20.919938539211984
 20
 224.15677213388648
 40
 5.6603886792339626
  0
TEXT
  8
192
  6
CONTINUOUS
 62
     56
 10
-25.719938539211984
 20
 221.15677213388648
 11
-16.119938539211983
 21
 221.15677213388648
 40
 6
 41
 0.8
  1
10
 50
 0
 72
  5
  0
ENDBLK
  8
0
  0
BLOCK
  8
0
  2
CADWIN-G13
 70
    0
 10
0.0
 20
0.0
  0
LINE
  8
192
  6
CONTINUOUS
 62
     7
 10
 10.730036924691584
 20
 180.12272116727837
 11
 17.063616570002367
 21
 194.05659638696207
  0
LINE
  8
192
  6
CONTINUOUS
 62
     7
 10
 10.730036924691584
 20
 180.12272116727837
 11
 13.700217878380814
 21
 184.14491274679591
  0
LINE
  8
192
  6
CONTINUOUS
 62
     7
 10
 10.730036924691584
 20
 180.12272116727837
 11
 11.807459542450237
 21
 185.00525744494615
  0
LINE
  8
192
  6
CONTINUOUS
 62
     7
 10
 17.063616570002367
 20
 194.05659638696207
 11
 22.919262870533508
 21
 218.65031084919298
  0
CIRCLE
  8
192
  6
CONTINUOUS
 62
     7
 10
 24.230325081174811
 20
 224.15677213388648
 40
 5.6603886792339626
  0
TEXT
  8
192
  6
CONTINUOUS
 62
     56
 10
 19.430325081174811
 20
 221.15677213388648
 11
 29.030325081174809
 21
 221.15677213388648
 40
 6
 41
 0.8
  1
11
 50
 0
 72
  5
  0
ENDBLK
  8
0
  0
BLOCK
  8
0
  2
CADWIN-G14
 70
    0
 10
0.0
 20
0.0
  0
LINE
  8
192
  6
CONTINUOUS
 62
     7
 10
 27.455343911202466
 20
 166.12272116727837
 11
 34.263716996816328
 21
 176.13982510903088
  0
LINE
  8
192
  6
CONTINUOUS
 62
     7
 10
 27.455343911202466
 20
 166.12272116727837
 11
 31.064323771673791
 21
 169.58325065952553
  0
LINE
  8
192
  6
CONTINUOUS
 62
     7
 10
 27.455343911202466
 20
 166.12272116727837
 11
 29.344786920518267
 21
 170.7519765193353
  0
LINE
  8
192
  6
CONTINUOUS
 62
     7
 10
 34.263716996816328
 20
 176.13982510903088
 11
 39.009055722561797
 21
 218.53151772569106
  0
CIRCLE
  8
192
  6
CONTINUOUS
 62
     7
 10
 39.638748380195608
 20
 224.15677213388648
 40
 5.6603886792339626
  0
TEXT
  8
192
  6
CONTINUOUS
 62
     56
 10
 34.838748380195611
 20
 221.15677213388648
 11
 44.438748380195605
 21
 221.15677213388648
 40
 6
 41
 0.8
  1
12
 50
 0
 72
  5
  0
ENDBLK
  8
0
  0
BLOCK
  8
0
  2
CADWIN-G15
 70
    0
 10
0.0
 20
0.0
  0
LINE
  8
192
  6
CONTINUOUS
 62
     7
 10
 42.156592139673215
 20
 165.03142691671351
 11
 49.313804870278538
 21
 178.64817308794122
  0
LINE
  8
192
  6
CONTINUOUS
 62
     7
 10
 42.156592139673215
 20
 165.03142691671351
 11
 45.352260036911218
 21
 168.87690565031255
  0
LINE
  8
192
  6
CONTINUOUS
 62
     7
 10
 42.156592139673215
 20
 165.03142691671351
 11
 43.511882920205828
 21
 169.84424177916182
  0
LINE
  8
192
  6
CONTINUOUS
 62
     7
 10
 49.313804870278538
 20
 178.64817308794122
 11
 53.395767423696356
 21
 218.52580726363698
  0
CIRCLE
  8
192
  6
CONTINUOUS
 62
     7
 10
 53.97216540254081
 20
 224.15677213388648
 40
 5.6603886792339626
  0
TEXT
  8
192
  6
CONTINUOUS
 62
     56
 10
 49.172165402540813
 20
 221.15677213388648
 11
 58.772165402540814
 21
 221.15677213388648
 40
 6
 41
 0.8
  1
13
 50
 0
 72
  5
  0
ENDBLK
  8
0
  0
BLOCK
  8
0
  2
CADWIN-G16
 70
    0
 10
0.0
 20
0.0
  0
LINE
  8
192
  6
CONTINUOUS
 62
     7
 10
-60.693067606980541
 20
 134.87664843508972
 11
-41.772878270636014
 21
 42.055186142149282
  0
POINT
  8
192
  6
CONTINUOUS
 62
     7
 10
-60.693067606980541
 20
 134.87664843508972
  0
CIRCLE
  8
192
  6
CONTINUOUS
 62
     7
 10
-40.642344340791482
 20
 36.508845633897892
 40
 5.6603886792339626
  0
TEXT
  8
192
  6
CONTINUOUS
 62
     56
 10
-45.442344340791479
 20
 33.508845633897892
 11
-35.842344340791485
 21
 33.508845633897892
 40
 6
 41
 0.8
  1
14
 50
 0
 72
  5
  0
ENDBLK
  8
0
  0
BLOCK
  8
0
  2
CADWIN-G17
 70
    0
 10
0.0
 20
0.0
  0
LINE
  8
192
  6
CONTINUOUS
 62
     7
 10
-16.051834674710705
 20
 93.26193976941444
 11
-21.163394588106328
 21
 42.141148544313566
  0
LINE
  8
192
  6
CONTINUOUS
 62
     7
 10
-16.051834674710705
 20
 93.26193976941444
 11
-17.572832721140738
 21
 88.498898205166228
  0
LINE
  8
192
  6
CONTINUOUS
 62
     7
 10
-16.051834674710705
 20
 93.26193976941444
 11
-15.504031994437305
 21
 88.292039144302777
  0
CIRCLE
  8
192
  6
CONTINUOUS
 62
     7
 10
-21.726567674575421
 20
 36.508845633897892
 40
 5.6603886792339626
  0
TEXT
  8
192
  6
CONTINUOUS
 62
     56
 10
-26.526567674575421
 20
 33.508845633897892
 11
-16.92656767457542
 21
 33.508845633897892
 40
 6
 41
 0.8
  1
15
 50
 0
 72
  5
  0
ENDBLK
  8
0
  0
BLOCK
  8
0
  2
CADWIN-G18
 70
    0
 10
0.0
 20
0.0
  0
LINE
  8
192
  6
CONTINUOUS
 62
     7
 10
 66.420951589991205
 20
 130.1227211672784
 11
 56.820411791190558
 21
 42.135836752569567
  0
LINE
  8
192
  6
CONTINUOUS
 62
     7
 10
 66.420951589991205
 20
 130.1227211672784
 11
 64.857030796204157
 21
 125.37360001165808
  0
LINE
  8
192
  6
CONTINUOUS
 62
     7
 10
 66.420951589991205
 20
 130.1227211672784
 11
 66.923880449111508
 21
 125.14807921406569
  0
CIRCLE
  8
192
  6
CONTINUOUS
 62
     7
 10
 56.206432190234551
 20
 36.508845633897892
 40
 5.6603886792339626
  0
TEXT
  8
192
  6
CONTINUOUS
 62
     56
 10
 51.406432190234554
 20
 33.508845633897892
 11
 61.006432190234548
 21
 33.508845633897892
 40
 6
 41
 0.8
  1
16
 50
 0
 72
  5
  0
ENDBLK
  8
0
  0
BLOCK
  8
0
  2
CADWIN-G19
 70
    0
 10
0.0
 20
0.0
  0
LINE
  8
192
  6
CONTINUOUS
 62
     7
 10
 77.013786523072184
 20
 120.12272116727839
 11
 74.544763099056439
 21
 42.166397456457474
  0
LINE
  8
192
  6
CONTINUOUS
 62
     7
 10
 77.013786523072184
 20
 120.12272116727839
 11
 75.819927830461523
 21
 115.26734255978774
  0
LINE
  8
192
  6
CONTINUOUS
 62
     7
 10
 77.013786523072184
 20
 120.12272116727839
 11
 77.898002733043384
 21
 115.20152601833092
  0
CIRCLE
  8
192
  6
CONTINUOUS
 62
     7
 10
 74.365577789801733
 20
 36.508845633897892
 40
 5.6603886792339626
  0
TEXT
  8
192
  6
CONTINUOUS
 62
     56
 10
 69.565577789801736
 20
 33.508845633897892
 11
 79.165577789801731
 21
 33.508845633897892
 40
 6
 41
 0.8
  1
17
 50
 0
 72
  5
  0
ENDBLK
  8
0
  0
BLOCK
  8
0
  2
CADWIN-G20
 70
    0
 10
0.0
 20
0.0
  0
LINE
  8
192
  6
CONTINUOUS
 62
     7
 10
-3.1449154900542595
 20
 194.94835420140882
 11
 2.3432849229288291
 21
 218.64237869311592
  0
LINE
  8
192
  6
CONTINUOUS
 62
     7
 10
-3.1449154900542595
 20
 194.94835420140882
 11
-1.028556239133251
 21
 199.4783678350573
  0
LINE
  8
192
  6
CONTINUOUS
 62
     7
 10
-3.1449154900542595
 20
 194.94835420140882
 11
-3.0540476480732641
 21
 199.94752843674945
  0
CIRCLE
  8
192
  6
CONTINUOUS
 62
     7
 10
 3.6205730581538376
 20
 224.15677213388648
 40
 5.6603886792339626
  0
TEXT
  8
192
  6
CONTINUOUS
 62
     56
 10
-1.1794269418461631
 20
 221.15677213388648
 11
 8.4205730581538383
 21
 221.15677213388648
 40
 6
 41
 0.8
  1
18
 50
 0
 72
  5
  0
ENDBLK
  8
0
  0
BLOCK
  8
0
  2
CADWIN-G21
 70
    0
 10
0.0
 20
0.0
  0
LINE
  8
192
  6
CONTINUOUS
 62
     7
 10
-85.843407860326778
 20
 171.13564823750437
 11
-127.62934098975816
 21
 173.73714594662545
  0
LINE
  8
192
  6
CONTINUOUS
 62
     7
 10
-85.843407860326778
 20
 171.13564823750437
 11
-90.660099522180829
 21
 172.4770957521786
  0
LINE
  8
192
  6
CONTINUOUS
 62
     7
 10
-85.843407860326778
 20
 171.13564823750437
 11
-90.789290507859505
 21
 170.40199652392727
  0
CIRCLE
  8
192
  6
CONTINUOUS
 62
     7
 10
-133.27879154911926
 20
 174.08886796375612
 40
 5.6603886792339626
  0
TEXT
  8
192
  6
CONTINUOUS
 62
     56
 10
-135.67879154911927
 20
 171.08886796375612
 11
-130.87879154911926
 21
 171.08886796375612
 40
 6
 41
 0.8
  1
4
 50
 0
 72
  5
  0
ENDBLK
  8
0
  0
BLOCK
  8
0
  2
CADWIN-G22
 70
    0
 10
0.0
 20
0.0
  0
LINE
  8
192
  6
CONTINUOUS
 62
     7
 10
-81.843407860326806
 20
 176.44110678568552
 11
-82.161784478734049
 21
 176.12273016727829
  0
LINE
  8
192
  6
CONTINUOUS
 62
     7
 10
-81.843407860326806
 20
 176.86537085439744
 11
-82.586048547445969
 21
 176.12273016727829
  0
LINE
  8
192
  6
CONTINUOUS
 62
     7
 10
-82.010312616157933
 20
 177.12273016727829
 11
-83.010312616157933
 21
 176.12273016727829
  0
LINE
  8
192
  6
CONTINUOUS
 62
     7
 10
-82.434576684869825
 20
 177.12273016727829
 11
-83.434576684869825
 21
 176.12273016727829
  0
LINE
  8
192
  6
CONTINUOUS
 62
     7
 10
-82.858840753581745
 20
 177.12273016727829
 11
-83.858840753581745
 21
 176.12273016727829
  0
LINE
  8
192
  6
CONTINUOUS
 62
     7
 10
-83.283104822293708
 20
 177.12273016727829
 11
-84.283104822293708
 21
 176.12273016727829
  0
LINE
  8
192
  6
CONTINUOUS
 62
     7
 10
-83.707368891005601
 20
 177.12273016727829
 11
-84.707368891005601
 21
 176.12273016727829
  0
LINE
  8
192
  6
CONTINUOUS
 62
     7
 10
-84.131632959717464
 20
 177.12273016727829
 11
-85.131632959717464
 21
 176.12273016727829
  0
LINE
  8
192
  6
CONTINUOUS
 62
     7
 10
-84.555897028429413
 20
 177.12273016727829
 11
-85.555897028429413
 21
 176.12273016727829
  0
LINE
  8
192
  6
CONTINUOUS
 62
     7
 10
-84.980161097141334
 20
 177.12273016727829
 11
-85.980161097141334
 21
 176.12273016727829
  0
LINE
  8
192
  6
CONTINUOUS
 62
     7
 10
-85.404425165853297
 20
 177.12273016727829
 11
-86.404425165853297
 21
 176.12273016727829
  0
LINE
  8
192
  6
CONTINUOUS
 62
     7
 10
-85.828689234565218
 20
 177.12273016727829
 11
-86.828689234565218
 21
 176.12273016727829
  0
LINE
  8
192
  6
CONTINUOUS
 62
     7
 10
-86.252953303277138
 20
 177.12273016727829
 11
-87.252953303277138
 21
 176.12273016727829
  0
LINE
  8
192
  6
CONTINUOUS
 62
     7
 10
-86.677217371988988
 20
 177.12273016727829
 11
-87.677217371989002
 21
 176.12273016727829
  0
LINE
  8
192
  6
CONTINUOUS
 62
     7
 10
-87.101481440700965
 20
 177.12273016727829
 11
-88.101481440700965
 21
 176.12273016727829
  0
LINE
  8
192
  6
CONTINUOUS
 62
     7
 10
-87.525745509412843
 20
 177.12273016727829
 11
-88.525745509412843
 21
 176.12273016727829
  0
LINE
  8
192
  6
CONTINUOUS
 62
     7
 10
-87.950009578124821
 20
 177.12273016727829
 11
-88.950009578124821
 21
 176.12273016727829
  0
LINE
  8
192
  6
CONTINUOUS
 62
     7
 10
-88.374273646836741
 20
 177.12273016727829
 11
-89.374273646836741
 21
 176.12273016727829
  0
LINE
  8
192
  6
CONTINUOUS
 62
     7
 10
-88.798537715548662
 20
 177.12273016727829
 11
-89.798537715548662
 21
 176.12273016727829
  0
LINE
  8
192
  6
CONTINUOUS
 62
     7
 10
-89.222801784260582
 20
 177.12273016727829
 11
-89.843407860326778
 21
 176.5021240912121
  0
LINE
  8
192
  6
CONTINUOUS
 62
     7
 10
-89.647065852972446
 20
 177.12273016727829
 11
-89.843407860326778
 21
 176.92638815992396
  0
LINE
  8
192
  6
CONTINUOUS
 62
     7
 10
-73.525031241919535
 20
 177.12273016727829
 11
-73.843407860326806
 21
 176.80435354887101
  0
LINE
  8
192
  6
CONTINUOUS
 62
     7
 10
-73.100767173207558
 20
 177.12273016727829
 11
-73.843407860326806
 21
 176.38008948015903
  0
LINE
  8
192
  6
CONTINUOUS
 62
     7
 10
-72.676503104495652
 20
 177.12273016727829
 11
-73.676503104495652
 21
 176.12273016727829
  0
LINE
  8
192
  6
CONTINUOUS
 62
     7
 10
-72.252239035783717
 20
 177.12273016727829
 11
-73.252239035783717
 21
 176.12273016727829
  0
LINE
  8
192
  6
CONTINUOUS
 62
     7
 10
-71.827974967071782
 20
 177.12273016727829
 11
-72.827974967071782
 21
 176.12273016727829
  0
LINE
  8
192
  6
CONTINUOUS
 62
     7
 10
-71.403710898359876
 20
 177.12273016727829
 11
-72.403710898359876
 21
 176.12273016727829
  0
LINE
  8
192
  6
CONTINUOUS
 62
     7
 10
-70.979446829647983
 20
 177.12273016727829
 11
-71.979446829647969
 21
 176.12273016727829
  0
LINE
  8
192
  6
CONTINUOUS
 62
     7
 10
-70.555182760936063
 20
 177.12273016727829
 11
-71.555182760936049
 21
 176.12273016727829
  0
LINE
  8
192
  6
CONTINUOUS
 62
     7
 10
-70.130918692224157
 20
 177.12273016727829
 11
-71.130918692224157
 21
 176.12273016727829
  0
LINE
  8
192
  6
CONTINUOUS
 62
     7
 10
-69.706654623512236
 20
 177.12273016727829
 11
-70.706654623512236
 21
 176.12273016727829
  0
LINE
  8
192
  6
CONTINUOUS
 62
     7
 10
-69.282390554800301
 20
 177.12273016727829
 11
-70.282390554800301
 21
 176.12273016727829
  0
LINE
  8
192
  6
CONTINUOUS
 62
     7
 10
-68.858126486088409
 20
 177.12273016727829
 11
-69.858126486088409
 21
 176.12273016727829
  0
LINE
  8
192
  6
CONTINUOUS
 62
     7
 10
-68.433862417376432
 20
 177.12273016727829
 11
-69.433862417376432
 21
 176.12273016727829
  0
LINE
  8
192
  6
CONTINUOUS
 62
     7
 10
-68.009598348664511
 20
 177.12273016727829
 11
-69.009598348664511
 21
 176.12273016727829
  0
LINE
  8
192
  6
CONTINUOUS
 62
     7
 10
-67.58533427995259
 20
 177.12273016727829
 11
-68.58533427995259
 21
 176.12273016727829
  0
LINE
  8
192
  6
CONTINUOUS
 62
     7
 10
-67.161070211240684
 20
 177.12273016727829
 11
-68.16107021124067
 21
 176.12273016727829
  0
LINE
  8
192
  6
CONTINUOUS
 62
     7
 10
-66.736806142528792
 20
 177.12273016727829
 11
-67.736806142528792
 21
 176.12273016727829
  0
LINE
  8
192
  6
CONTINUOUS
 62
     7
 10
-66.312542073816871
 20
 177.12273016727829
 11
-67.312542073816871
 21
 176.12273016727829
  0
LINE
  8
192
  6
CONTINUOUS
 62
     7
 10
-65.888278005104951
 20
 177.12273016727829
 11
-66.888278005104951
 21
 176.12273016727829
  0
LINE
  8
192
  6
CONTINUOUS
 62
     7
 10
-65.843407860326778
 20
 176.74333624334449
 11
-66.464013936392973
 21
 176.12273016727829
  0
LINE
  8
192
  6
CONTINUOUS
 62
     7
 10
-65.843407860326778
 20
 176.31907217463262
 11
-66.03974986768111
 21
 176.12273016727829
  0
ENDBLK
  8
0
  0
BLOCK
  8
0
  2
CADWIN-G23
 70
    0
 10
0.0
 20
0.0
  0
LINE
  8
192
  6
CONTINUOUS
 62
     7
 10
-81.843407860326806
 20
 155.44110678568552
 11
-82.161784478734049
 21
 155.12273016727829
  0
LINE
  8
192
  6
CONTINUOUS
 62
     7
 10
-81.843407860326806
 20
 155.86537085439744
 11
-82.586048547445969
 21
 155.12273016727829
  0
LINE
  8
192
  6
CONTINUOUS
 62
     7
 10
-82.010312616157933
 20
 156.12273016727829
 11
-83.010312616157933
 21
 155.12273016727829
  0
LINE
  8
192
  6
CONTINUOUS
 62
     7
 10
-82.434576684869825
 20
 156.12273016727829
 11
-83.434576684869825
 21
 155.12273016727829
  0
LINE
  8
192
  6
CONTINUOUS
 62
     7
 10
-82.858840753581745
 20
 156.12273016727829
 11
-83.858840753581745
 21
 155.12273016727829
  0
LINE
  8
192
  6
CONTINUOUS
 62
     7
 10
-83.283104822293708
 20
 156.12273016727829
 11
-84.283104822293708
 21
 155.12273016727829
  0
LINE
  8
192
  6
CONTINUOUS
 62
     7
 10
-83.707368891005601
 20
 156.12273016727829
 11
-84.707368891005601
 21
 155.12273016727829
  0
LINE
  8
192
  6
CONTINUOUS
 62
     7
 10
-84.131632959717464
 20
 156.12273016727829
 11
-85.131632959717464
 21
 155.12273016727829
  0
LINE
  8
192
  6
CONTINUOUS
 62
     7
 10
-84.555897028429413
 20
 156.12273016727829
 11
-85.555897028429413
 21
 155.12273016727829
  0
LINE
  8
192
  6
CONTINUOUS
 62
     7
 10
-84.980161097141334
 20
 156.12273016727829
 11
-85.980161097141334
 21
 155.12273016727829
  0
LINE
  8
192
  6
CONTINUOUS
 62
     7
 10
-85.404425165853297
 20
 156.12273016727829
 11
-86.404425165853297
 21
 155.12273016727829
  0
LINE
  8
192
  6
CONTINUOUS
 62
     7
 10
-85.828689234565218
 20
 156.12273016727829
 11
-86.828689234565218
 21
 155.12273016727829
  0
LINE
  8
192
  6
CONTINUOUS
 62
     7
 10
-86.252953303277138
 20
 156.12273016727829
 11
-87.252953303277138
 21
 155.12273016727829
  0
LINE
  8
192
  6
CONTINUOUS
 62
     7
 10
-86.677217371988988
 20
 156.12273016727829
 11
-87.677217371989002
 21
 155.12273016727829
  0
LINE
  8
192
  6
CONTINUOUS
 62
     7
 10
-87.101481440700965
 20
 156.12273016727829
 11
-88.101481440700965
 21
 155.12273016727829
  0
LINE
  8
192
  6
CONTINUOUS
 62
     7
 10
-87.525745509412843
 20
 156.12273016727829
 11
-88.525745509412843
 21
 155.12273016727829
  0
LINE
  8
192
  6
CONTINUOUS
 62
     7
 10
-87.950009578124821
 20
 156.12273016727829
 11
-88.950009578124821
 21
 155.12273016727829
  0
LINE
  8
192
  6
CONTINUOUS
 62
     7
 10
-88.374273646836741
 20
 156.12273016727829
 11
-89.374273646836741
 21
 155.12273016727829
  0
LINE
  8
192
  6
CONTINUOUS
 62
     7
 10
-88.798537715548662
 20
 156.12273016727829
 11
-89.798537715548662
 21
 155.12273016727829
  0
LINE
  8
192
  6
CONTINUOUS
 62
     7
 10
-89.222801784260582
 20
 156.12273016727829
 11
-89.843407860326778
 21
 155.5021240912121
  0
LINE
  8
192
  6
CONTINUOUS
 62
     7
 10
-89.647065852972446
 20
 156.12273016727829
 11
-89.843407860326778
 21
 155.92638815992396
  0
LINE
  8
192
  6
CONTINUOUS
 62
     7
 10
-73.525031241919535
 20
 156.12273016727829
 11
-73.843407860326806
 21
 155.80435354887101
  0
LINE
  8
192
  6
CONTINUOUS
 62
     7
 10
-73.100767173207558
 20
 156.12273016727829
 11
-73.843407860326806
 21
 155.38008948015903
  0
LINE
  8
192
  6
CONTINUOUS
 62
     7
 10
-72.676503104495652
 20
 156.12273016727829
 11
-73.676503104495652
 21
 155.12273016727829
  0
LINE
  8
192
  6
CONTINUOUS
 62
     7
 10
-72.252239035783717
 20
 156.12273016727829
 11
-73.252239035783717
 21
 155.12273016727829
  0
LINE
  8
192
  6
CONTINUOUS
 62
     7
 10
-71.827974967071782
 20
 156.12273016727829
 11
-72.827974967071782
 21
 155.12273016727829
  0
LINE
  8
192
  6
CONTINUOUS
 62
     7
 10
-71.403710898359876
 20
 156.12273016727829
 11
-72.403710898359876
 21
 155.12273016727829
  0
LINE
  8
192
  6
CONTINUOUS
 62
     7
 10
-70.979446829647983
 20
 156.12273016727829
 11
-71.979446829647969
 21
 155.12273016727829
  0
LINE
  8
192
  6
CONTINUOUS
 62
     7
 10
-70.555182760936063
 20
 156.12273016727829
 11
-71.555182760936049
 21
 155.12273016727829
  0
LINE
  8
192
  6
CONTINUOUS
 62
     7
 10
-70.130918692224157
 20
 156.12273016727829
 11
-71.130918692224157
 21
 155.12273016727829
  0
LINE
  8
192
  6
CONTINUOUS
 62
     7
 10
-69.706654623512236
 20
 156.12273016727829
 11
-70.706654623512236
 21
 155.12273016727829
  0
LINE
  8
192
  6
CONTINUOUS
 62
     7
 10
-69.282390554800301
 20
 156.12273016727829
 11
-70.282390554800301
 21
 155.12273016727829
  0
LINE
  8
192
  6
CONTINUOUS
 62
     7
 10
-68.858126486088409
 20
 156.12273016727829
 11
-69.858126486088409
 21
 155.12273016727829
  0
LINE
  8
192
  6
CONTINUOUS
 62
     7
 10
-68.433862417376432
 20
 156.12273016727829
 11
-69.433862417376432
 21
 155.12273016727829
  0
LINE
  8
192
  6
CONTINUOUS
 62
     7
 10
-68.009598348664511
 20
 156.12273016727829
 11
-69.009598348664511
 21
 155.12273016727829
  0
LINE
  8
192
  6
CONTINUOUS
 62
     7
 10
-67.58533427995259
 20
 156.12273016727829
 11
-68.58533427995259
 21
 155.12273016727829
  0
LINE
  8
192
  6
CONTINUOUS
 62
     7
 10
-67.161070211240684
 20
 156.12273016727829
 11
-68.16107021124067
 21
 155.12273016727829
  0
LINE
  8
192
  6
CONTINUOUS
 62
     7
 10
-66.736806142528792
 20
 156.12273016727829
 11
-67.736806142528792
 21
 155.12273016727829
  0
LINE
  8
192
  6
CONTINUOUS
 62
     7
 10
-66.312542073816871
 20
 156.12273016727829
 11
-67.312542073816871
 21
 155.12273016727829
  0
LINE
  8
192
  6
CONTINUOUS
 62
     7
 10
-65.888278005104951
 20
 156.12273016727829
 11
-66.888278005104951
 21
 155.12273016727829
  0
LINE
  8
192
  6
CONTINUOUS
 62
     7
 10
-65.843407860326778
 20
 155.74333624334449
 11
-66.464013936392973
 21
 155.12273016727829
  0
LINE
  8
192
  6
CONTINUOUS
 62
     7
 10
-65.843407860326778
 20
 155.31907217463262
 11
-66.03974986768111
 21
 155.12273016727829
  0
ENDBLK
  8
0
  0
BLOCK
  8
0
  2
CADWIN-G24
 70
    0
 10
0.0
 20
0.0
  0
LINE
  8
192
  6
CONTINUOUS
 62
     7
 10
-81.843407860326806
 20
 124.44108878568576
 11
-82.161784478734049
 21
 124.12271216727854
  0
LINE
  8
192
  6
CONTINUOUS
 62
     7
 10
-81.843407860326806
 20
 124.8653528543977
 11
-82.586048547445969
 21
 124.12271216727854
  0
LINE
  8
192
  6
CONTINUOUS
 62
     7
 10
-82.010312616157933
 20
 125.12271216727854
 11
-83.010312616157933
 21
 124.12271216727854
  0
LINE
  8
192
  6
CONTINUOUS
 62
     7
 10
-82.434576684869825
 20
 125.12271216727854
 11
-83.434576684869825
 21
 124.12271216727854
  0
LINE
  8
192
  6
CONTINUOUS
 62
     7
 10
-82.858840753581745
 20
 125.12271216727854
 11
-83.858840753581745
 21
 124.12271216727854
  0
LINE
  8
192
  6
CONTINUOUS
 62
     7
 10
-83.283104822293708
 20
 125.12271216727854
 11
-84.283104822293708
 21
 124.12271216727854
  0
LINE
  8
192
  6
CONTINUOUS
 62
     7
 10
-83.707368891005601
 20
 125.12271216727854
 11
-84.707368891005601
 21
 124.12271216727854
  0
LINE
  8
192
  6
CONTINUOUS
 62
     7
 10
-84.131632959717464
 20
 125.12271216727854
 11
-85.131632959717464
 21
 124.12271216727854
  0
LINE
  8
192
  6
CONTINUOUS
 62
     7
 10
-84.555897028429413
 20
 125.12271216727854
 11
-85.555897028429413
 21
 124.12271216727854
  0
LINE
  8
192
  6
CONTINUOUS
 62
     7
 10
-84.980161097141334
 20
 125.12271216727854
 11
-85.980161097141334
 21
 124.12271216727854
  0
LINE
  8
192
  6
CONTINUOUS
 62
     7
 10
-85.404425165853297
 20
 125.12271216727854
 11
-86.404425165853297
 21
 124.12271216727854
  0
LINE
  8
192
  6
CONTINUOUS
 62
     7
 10
-85.828689234565218
 20
 125.12271216727854
 11
-86.828689234565218
 21
 124.12271216727854
  0
LINE
  8
192
  6
CONTINUOUS
 62
     7
 10
-86.252953303277138
 20
 125.12271216727854
 11
-87.252953303277138
 21
 124.12271216727854
  0
LINE
  8
192
  6
CONTINUOUS
 62
     7
 10
-86.677217371988988
 20
 125.12271216727854
 11
-87.677217371989002
 21
 124.12271216727854
  0
LINE
  8
192
  6
CONTINUOUS
 62
     7
 10
-87.101481440700965
 20
 125.12271216727854
 11
-88.101481440700965
 21
 124.12271216727854
  0
LINE
  8
192
  6
CONTINUOUS
 62
     7
 10
-87.525745509412843
 20
 125.12271216727854
 11
-88.525745509412843
 21
 124.12271216727854
  0
LINE
  8
192
  6
CONTINUOUS
 62
     7
 10
-87.950009578124821
 20
 125.12271216727854
 11
-88.950009578124821
 21
 124.12271216727854
  0
LINE
  8
192
  6
CONTINUOUS
 62
     7
 10
-88.374273646836741
 20
 125.12271216727854
 11
-89.374273646836741
 21
 124.12271216727854
  0
LINE
  8
192
  6
CONTINUOUS
 62
     7
 10
-88.798537715548662
 20
 125.12271216727854
 11
-89.798537715548662
 21
 124.12271216727854
  0
LINE
  8
192
  6
CONTINUOUS
 62
     7
 10
-89.222801784260582
 20
 125.12271216727854
 11
-89.843407860326778
 21
 124.50210609121234
  0
LINE
  8
192
  6
CONTINUOUS
 62
     7
 10
-89.647065852972446
 20
 125.12271216727854
 11
-89.843407860326778
 21
 124.9263701599242
  0
LINE
  8
192
  6
CONTINUOUS
 62
     7
 10
-73.525031241919535
 20
 125.12271216727854
 11
-73.843407860326806
 21
 124.80433554887125
  0
LINE
  8
192
  6
CONTINUOUS
 62
     7
 10
-73.100767173207558
 20
 125.12271216727854
 11
-73.843407860326806
 21
 124.38007148015929
  0
LINE
  8
192
  6
CONTINUOUS
 62
     7
 10
-72.676503104495652
 20
 125.12271216727854
 11
-73.676503104495652
 21
 124.12271216727854
  0
LINE
  8
192
  6
CONTINUOUS
 62
     7
 10
-72.252239035783717
 20
 125.12271216727854
 11
-73.252239035783717
 21
 124.12271216727854
  0
LINE
  8
192
  6
CONTINUOUS
 62
     7
 10
-71.827974967071782
 20
 125.12271216727854
 11
-72.827974967071782
 21
 124.12271216727854
  0
LINE
  8
192
  6
CONTINUOUS
 62
     7
 10
-71.403710898359876
 20
 125.12271216727854
 11
-72.403710898359876
 21
 124.12271216727854
  0
LINE
  8
192
  6
CONTINUOUS
 62
     7
 10
-70.979446829647983
 20
 125.12271216727854
 11
-71.979446829647969
 21
 124.12271216727854
  0
LINE
  8
192
  6
CONTINUOUS
 62
     7
 10
-70.555182760936063
 20
 125.12271216727854
 11
-71.555182760936049
 21
 124.12271216727854
  0
LINE
  8
192
  6
CONTINUOUS
 62
     7
 10
-70.130918692224157
 20
 125.12271216727854
 11
-71.130918692224157
 21
 124.12271216727854
  0
LINE
  8
192
  6
CONTINUOUS
 62
     7
 10
-69.706654623512236
 20
 125.12271216727854
 11
-70.706654623512236
 21
 124.12271216727854
  0
LINE
  8
192
  6
CONTINUOUS
 62
     7
 10
-69.282390554800301
 20
 125.12271216727854
 11
-70.282390554800301
 21
 124.12271216727854
  0
LINE
  8
192
  6
CONTINUOUS
 62
     7
 10
-68.858126486088409
 20
 125.12271216727854
 11
-69.858126486088409
 21
 124.12271216727854
  0
LINE
  8
192
  6
CONTINUOUS
 62
     7
 10
-68.433862417376432
 20
 125.12271216727854
 11
-69.433862417376432
 21
 124.12271216727854
  0
LINE
  8
192
  6
CONTINUOUS
 62
     7
 10
-68.009598348664511
 20
 125.12271216727854
 11
-69.009598348664511
 21
 124.12271216727854
  0
LINE
  8
192
  6
CONTINUOUS
 62
     7
 10
-67.58533427995259
 20
 125.12271216727854
 11
-68.58533427995259
 21
 124.12271216727854
  0
LINE
  8
192
  6
CONTINUOUS
 62
     7
 10
-67.161070211240684
 20
 125.12271216727854
 11
-68.16107021124067
 21
 124.12271216727854
  0
LINE
  8
192
  6
CONTINUOUS
 62
     7
 10
-66.736806142528792
 20
 125.12271216727854
 11
-67.736806142528792
 21
 124.12271216727854
  0
LINE
  8
192
  6
CONTINUOUS
 62
     7
 10
-66.312542073816871
 20
 125.12271216727854
 11
-67.312542073816871
 21
 124.12271216727854
  0
LINE
  8
192
  6
CONTINUOUS
 62
     7
 10
-65.888278005104951
 20
 125.12271216727854
 11
-66.888278005104951
 21
 124.12271216727854
  0
LINE
  8
192
  6
CONTINUOUS
 62
     7
 10
-65.843407860326778
 20
 124.74331824334475
 11
-66.464013936392973
 21
 124.12271216727854
  0
LINE
  8
192
  6
CONTINUOUS
 62
     7
 10
-65.843407860326778
 20
 124.31905417463285
 11
-66.03974986768111
 21
 124.12271216727854
  0
ENDBLK
  8
0
  0
BLOCK
  8
0
  2
CADWIN-G25
 70
    0
 10
0.0
 20
0.0
  0
LINE
  8
192
  6
CONTINUOUS
 62
     7
 10
-81.843407860326806
 20
 103.44108878568575
 11
-82.161784478734049
 21
 103.12271216727852
  0
LINE
  8
192
  6
CONTINUOUS
 62
     7
 10
-81.843407860326806
 20
 103.86535285439767
 11
-82.586048547445969
 21
 103.12271216727852
  0
LINE
  8
192
  6
CONTINUOUS
 62
     7
 10
-82.010312616157933
 20
 104.12271216727852
 11
-83.010312616157933
 21
 103.12271216727852
  0
LINE
  8
192
  6
CONTINUOUS
 62
     7
 10
-82.434576684869825
 20
 104.12271216727852
 11
-83.434576684869825
 21
 103.12271216727852
  0
LINE
  8
192
  6
CONTINUOUS
 62
     7
 10
-82.858840753581745
 20
 104.12271216727852
 11
-83.858840753581745
 21
 103.12271216727852
  0
LINE
  8
192
  6
CONTINUOUS
 62
     7
 10
-83.283104822293708
 20
 104.12271216727852
 11
-84.283104822293708
 21
 103.12271216727852
  0
LINE
  8
192
  6
CONTINUOUS
 62
     7
 10
-83.707368891005601
 20
 104.12271216727852
 11
-84.707368891005601
 21
 103.12271216727852
  0
LINE
  8
192
  6
CONTINUOUS
 62
     7
 10
-84.131632959717464
 20
 104.12271216727852
 11
-85.131632959717464
 21
 103.12271216727852
  0
LINE
  8
192
  6
CONTINUOUS
 62
     7
 10
-84.555897028429413
 20
 104.12271216727852
 11
-85.555897028429413
 21
 103.12271216727852
  0
LINE
  8
192
  6
CONTINUOUS
 62
     7
 10
-84.980161097141334
 20
 104.12271216727852
 11
-85.980161097141334
 21
 103.12271216727852
  0
LINE
  8
192
  6
CONTINUOUS
 62
     7
 10
-85.404425165853297
 20
 104.12271216727852
 11
-86.404425165853297
 21
 103.12271216727852
  0
LINE
  8
192
  6
CONTINUOUS
 62
     7
 10
-85.828689234565218
 20
 104.12271216727852
 11
-86.828689234565218
 21
 103.12271216727852
  0
LINE
  8
192
  6
CONTINUOUS
 62
     7
 10
-86.252953303277138
 20
 104.12271216727852
 11
-87.252953303277138
 21
 103.12271216727852
  0
LINE
  8
192
  6
CONTINUOUS
 62
     7
 10
-86.677217371988988
 20
 104.12271216727852
 11
-87.677217371989002
 21
 103.12271216727852
  0
LINE
  8
192
  6
CONTINUOUS
 62
     7
 10
-87.101481440700965
 20
 104.12271216727852
 11
-88.101481440700965
 21
 103.12271216727852
  0
LINE
  8
192
  6
CONTINUOUS
 62
     7
 10
-87.525745509412843
 20
 104.12271216727852
 11
-88.525745509412843
 21
 103.12271216727852
  0
LINE
  8
192
  6
CONTINUOUS
 62
     7
 10
-87.950009578124821
 20
 104.12271216727852
 11
-88.950009578124821
 21
 103.12271216727852
  0
LINE
  8
192
  6
CONTINUOUS
 62
     7
 10
-88.374273646836741
 20
 104.12271216727852
 11
-89.374273646836741
 21
 103.12271216727852
  0
LINE
  8
192
  6
CONTINUOUS
 62
     7
 10
-88.798537715548662
 20
 104.12271216727852
 11
-89.798537715548662
 21
 103.12271216727852
  0
LINE
  8
192
  6
CONTINUOUS
 62
     7
 10
-89.222801784260582
 20
 104.12271216727852
 11
-89.843407860326778
 21
 103.50210609121233
  0
LINE
  8
192
  6
CONTINUOUS
 62
     7
 10
-89.647065852972446
 20
 104.12271216727852
 11
-89.843407860326778
 21
 103.92637015992419
  0
LINE
  8
192
  6
CONTINUOUS
 62
     7
 10
-73.525031241919535
 20
 104.12271216727852
 11
-73.843407860326806
 21
 103.80433554887124
  0
LINE
  8
192
  6
CONTINUOUS
 62
     7
 10
-73.100767173207558
 20
 104.12271216727852
 11
-73.843407860326806
 21
 103.38007148015926
  0
LINE
  8
192
  6
CONTINUOUS
 62
     7
 10
-72.676503104495652
 20
 104.12271216727852
 11
-73.676503104495652
 21
 103.12271216727852
  0
LINE
  8
192
  6
CONTINUOUS
 62
     7
 10
-72.252239035783717
 20
 104.12271216727852
 11
-73.252239035783717
 21
 103.12271216727852
  0
LINE
  8
192
  6
CONTINUOUS
 62
     7
 10
-71.827974967071782
 20
 104.12271216727852
 11
-72.827974967071782
 21
 103.12271216727852
  0
LINE
  8
192
  6
CONTINUOUS
 62
     7
 10
-71.403710898359876
 20
 104.12271216727852
 11
-72.403710898359876
 21
 103.12271216727852
  0
LINE
  8
192
  6
CONTINUOUS
 62
     7
 10
-70.979446829647983
 20
 104.12271216727852
 11
-71.979446829647969
 21
 103.12271216727852
  0
LINE
  8
192
  6
CONTINUOUS
 62
     7
 10
-70.555182760936063
 20
 104.12271216727852
 11
-71.555182760936049
 21
 103.12271216727852
  0
LINE
  8
192
  6
CONTINUOUS
 62
     7
 10
-70.130918692224157
 20
 104.12271216727852
 11
-71.130918692224157
 21
 103.12271216727852
  0
LINE
  8
192
  6
CONTINUOUS
 62
     7
 10
-69.706654623512236
 20
 104.12271216727852
 11
-70.706654623512236
 21
 103.12271216727852
  0
LINE
  8
192
  6
CONTINUOUS
 62
     7
 10
-69.282390554800301
 20
 104.12271216727852
 11
-70.282390554800301
 21
 103.12271216727852
  0
LINE
  8
192
  6
CONTINUOUS
 62
     7
 10
-68.858126486088409
 20
 104.12271216727852
 11
-69.858126486088409
 21
 103.12271216727852
  0
LINE
  8
192
  6
CONTINUOUS
 62
     7
 10
-68.433862417376432
 20
 104.12271216727852
 11
-69.433862417376432
 21
 103.12271216727852
  0
LINE
  8
192
  6
CONTINUOUS
 62
     7
 10
-68.009598348664511
 20
 104.12271216727852
 11
-69.009598348664511
 21
 103.12271216727852
  0
LINE
  8
192
  6
CONTINUOUS
 62
     7
 10
-67.58533427995259
 20
 104.12271216727852
 11
-68.58533427995259
 21
 103.12271216727852
  0
LINE
  8
192
  6
CONTINUOUS
 62
     7
 10
-67.161070211240684
 20
 104.12271216727852
 11
-68.16107021124067
 21
 103.12271216727852
  0
LINE
  8
192
  6
CONTINUOUS
 62
     7
 10
-66.736806142528792
 20
 104.12271216727852
 11
-67.736806142528792
 21
 103.12271216727852
  0
LINE
  8
192
  6
CONTINUOUS
 62
     7
 10
-66.312542073816871
 20
 104.12271216727852
 11
-67.312542073816871
 21
 103.12271216727852
  0
LINE
  8
192
  6
CONTINUOUS
 62
     7
 10
-65.888278005104951
 20
 104.12271216727852
 11
-66.888278005104951
 21
 103.12271216727852
  0
LINE
  8
192
  6
CONTINUOUS
 62
     7
 10
-65.843407860326778
 20
 103.74331824334472
 11
-66.464013936392973
 21
 103.12271216727852
  0
LINE
  8
192
  6
CONTINUOUS
 62
     7
 10
-65.843407860326778
 20
 103.31905417463285
 11
-66.03974986768111
 21
 103.12271216727852
  0
ENDBLK
  8
0
  0
ENDSEC
  0
SECTION
  2
ENTITIES
  0
LINE
  8
0
  6
CONTINUOUS
 62
     5
 10
-179.99999999999994
 20
-277
 11
-179.99999999999994
 21
 277
  0
LINE
  8
0
  6
CONTINUOUS
 62
     5
 10
 189.99999999999994
 20
 277
 11
 189.99999999999994
 21
-277
  0
LINE
  8
0
  6
CONTINUOUS
 62
     5
 10
 189.99999999999994
 20
-277
 11
-179.99999999999994
 21
-277
  0
LINE
  8
0
  6
CONTINUOUS
 62
     5
 10
-179.99999999999994
 20
 277
 11
 189.99999999999994
 21
 277
  0
LINE
  8
0
  6
CONTINUOUS
 62
     5
 10
 189.99999999999994
 20
-199
 11
-179.99999999999994
 21
-199
  0
LINE
  8
0
  6
CONTINUOUS
 62
     5
 10
 189.99999999999994
 20
-215
 11
-179.99999999999994
 21
-215
  0
LINE
  8
0
  6
CONTINUOUS
 62
     5
 10
 189.99999999999994
 20
-241
 11
-179.99999999999994
 21
-241
  0
LINE
  8
0
  6
CONTINUOUS
 62
     5
 10
 30
 20
-255
 11
-179.99999999999994
 21
-255
  0
LINE
  8
0
  6
CONTINUOUS
 62
     5
 10
 30
 20
-277
 11
 30
 21
-199
  0
LINE
  8
0
  6
CONTINUOUS
 62
     5
 10
-127.5
 20
-241
 11
-127.5
 21
-277
  0
LINE
  8
0
  6
CONTINUOUS
 62
     5
 10
-74.999999999999986
 20
-241
 11
-74.999999999999986
 21
-277
  0
LINE
  8
0
  6
CONTINUOUS
 62
     5
 10
-22.499999999999993
 20
-241
 11
-22.499999999999993
 21
-277
  0
LINE
  8
0
  6
CONTINUOUS
 62
     5
 10
-179.99999999999994
 20
-227
 11
 30
 21
-227
  0
LINE
  8
0
  6
CONTINUOUS
 62
     5
 10
 158
 20
-199
 11
 158
 21
-241
  0
LINE
  8
0
  6
CONTINUOUS
 62
     5
 10
 151.33333333333331
 20
-232.99999999999994
 11
 36.666666666666657
 21
-232.99999999999994
  0
TEXT
  8
0
  6
CONTINUOUS
 62
     5
 10
-168.55000003576276
 20
-254
 11
-138.95000003576277
 21
-254
 40
 6
 41
 0.8
  1
承認
 50
 0
 72
  5
  0
TEXT
  8
0
  6
CONTINUOUS
 62
     5
 10
-116.05000003576276
 20
-254
 11
-86.45000003576277
 21
-254
 40
 6
 41
 0.8
  1
検図
 50
 0
 72
  5
  0
TEXT
  8
0
  6
CONTINUOUS
 62
     5
 10
-63.550000035762793
 20
-254
 11
-33.950000035762784
 21
-254
 40
 6
 41
 0.8
  1
設計
 50
 0
 72
  5
  0
TEXT
  8
0
  6
CONTINUOUS
 62
     5
 10
-11.050000035762785
 20
-254
 11
 18.549999964237216
 21
-254
 40
 6
 41
 0.8
  1
製図
 50
 0
 72
  5
  0
TEXT
  8
0
  6
CONTINUOUS
 62
     3
 10
-11.850000041723252
 20
-269.5
 11
 19.349999958276751
 21
-269.5
 40
 7
 41
 0.8
  1
大塚
 50
 0
 72
  5
  0
TEXT
  8
0
  6
CONTINUOUS
 62
     3
 10
-143.99999620914454
 20
-236.99999999999994
 11
-35.599996209144535
 21
-236.99999999999994
 40
 6
 41
 0.8
  1
接液部構造断面図
 50
 0
 72
  5
  0
TEXT
  8
0
  6
CONTINUOUS
 62
     3
 10
 164.80000001788139
 20
-230.99999999999994
 11
 183.20000001788139
 21
-230.99999999999994
 40
 6
 41
 0.8
  1
non
 50
 0
 72
  5
  0
TEXT
  8
0
  6
CONTINUOUS
 62
     5
 10
 112.39999989271161
 20
-274
 11
 167.9999998927116
 21
-274
 40
 16
 41
 0.8
  1
神洋
 50
 0
 72
  5
  0
TEXT
  8
0
  6
CONTINUOUS
 62
     5
 10
 48.40000001192093
 20
-212.99999999999994
 11
 139.60000001192091
 21
-212.99999999999994
 40
 6
 41
 0.8
  1
図面番号
 50
 0
 72
  5
  0
TEXT
  8
0
  6
CONTINUOUS
 62
     5
 10
 164.20000002384185
 20
-212.99999999999994
 11
 183.80000002384185
 21
-212.99999999999994
 40
 6
 41
 0.8
  1
尺度
 50
 0
 72
  5
  0
TEXT
  8
0
  6
CONTINUOUS
 62
     5
 10
-144.59999998807902
 20
-212.99999999999994
 11
-5.3999999880790313
 21
-212.99999999999994
 40
 6
 41
 0.8
  1
図面名称
 50
 0
 72
  5
  0
TEXT
  8
0
  6
CONTINUOUS
 62
     3
 10
 48.399999982118594
 20
-226.99999999999994
 11
 139.59999998211859
 21
-226.99999999999994
 40
 6
 41
 0.8
  1
CAP-0-210
 50
 0
 72
  5
  0
TEXT
  8
0
  6
CONTINUOUS
 62
     3
 10
-174.99999996423713
 20
-225
 11
 23.400000035762901
 21
-225
 40
 6
 41
 0.8
  1
ＷＳ型　ポンプ（φ7,φ10，φ14，φ20）
 50
 0
 72
  5
  0
TEXT
  8
0
  6
CONTINUOUS
 62
     5
 10
-118.45000014305111
 20
-245.99999999999994
 11
-84.050000143051108
 21
-245.99999999999994
 40
 4
 41
 0.8
  1
CHECKED
 50
 0
 72
  5
  0
TEXT
  8
0
  6
CONTINUOUS
 62
     5
 10
-68.550000166893
 20
-245.99999999999994
 11
-28.950000166893005
 21
-245.99999999999994
 40
 4
 41
 0.8
  1
DESIGNED
 50
 0
 72
  5
  0
TEXT
  8
0
  6
CONTINUOUS
 62
     5
 10
-8.2500000953674313
 20
-245.99999999999994
 11
 15.749999904632567
 21
-245.99999999999994
 40
 4
 41
 0.8
  1
DRAWN
 50
 0
 72
  5
  0
TEXT
  8
0
  6
CONTINUOUS
 62
     5
 10
-87.000000095367426
 20
-204
 11
-63.00000009536744
 21
-204
 40
 4
 41
 0.8
  1
TITLE
 50
 0
 72
  5
  0
TEXT
  8
0
  6
CONTINUOUS
 62
     5
 10
-173.550000166893
 20
-245.99999999999994
 11
-133.95000016689301
 21
-245.99999999999994
 40
 4
 41
 0.8
  1
APPROVED
 50
 0
 72
  5
  0
TEXT
  8
0
  6
CONTINUOUS
 62
     5
 10
 161.99999990463257
 20
-204
 11
 185.99999990463257
 21
-204
 40
 4
 41
 0.8
  1
SCALE
 50
 0
 72
  5
  0
TEXT
  8
0
  6
CONTINUOUS
 62
     5
 10
 115.89037726086381
 20
-204
 11
 129.49037726086382
 21
-204
 40
 4
 41
 0.8
  1
NO.
 50
 0
 72
  5
  0
TEXT
  8
0
  6
CONTINUOUS
 62
     5
 10
 47.309860277258359
 20
-204
 11
 81.709860277258372
 21
-204
 40
 4
 41
 0.8
  1
DRAWING
 50
 0
 72
  5
  0
TEXT
  8
0
  6
CONTINUOUS
 62
     5
 10
 55.495797545013431
 20
-272.00000000922762
 11
 95.895797545013437
 21
-272.00000000922762
 40
 7
 41
 0.8
  1
株式会社
 50
 0
 72
  5
  0
TEXT
  8
0
  6
CONTINUOUS
 62
     5
 10
 45.527954795516493
 20
-251.99999999999994
 11
 152.7279547955165
 21
-251.99999999999994
 40
 8
 41
 0.8
  1
SINYO CO.,LTD
 50
 0
 72
  5
  0
LINE
  8
0
  6
CONTINUOUS
 62
     5
 10
-179.99999999999994
 20
 0.0000000000000028
 11
-189.99999999999994
 21
 0.0000000000000028
  0
LINE
  8
0
  6
CONTINUOUS
 62
     3
 10
-85.343413860326535
 20
 230.12272116727854
 11
-70.34340186032702
 21
 230.12272116727854
  0
LINE
  8
0
  6
CONTINUOUS
 62
     3
 10
-86.343413860326535
 20
 220.12272116727854
 11
-86.343413860326535
 21
 182.12273016727829
  0
LINE
  8
0
  6
CONTINUOUS
 62
     3
 10
-69.34340186032702
 20
 182.12273016727829
 11
-69.34340186032702
 21
 220.12272116729076
  0
LINE
  8
0
  6
CONTINUOUS
 62
     3
 10
-85.343413860326535
 20
 230.12272116727854
 11
-86.343413860326535
 21
 220.12272116727854
  0
LINE
  8
0
  6
CONTINUOUS
 62
     3
 10
-70.34340186032702
 20
 230.12272116727854
 11
-69.34340186032702
 21
 220.12272116729076
  0
LINE
  8
0
  6
CENTER
 62
     7
 10
-77.843407860326778
 20
 252.26331870682148
 11
-77.843407860326806
 21
 31.992668443201069
  0
CIRCLE
  8
0
  6
CONTINUOUS
 62
     4
 10
-77.843407860326778
 20
 164.35249892835088
 40
 4.7625000000000002
  0
LINE
  8
0
  6
CONTINUOUS
 62
     4
 10
-85.843407860326778
 20
 161.12273016727829
 11
-85.843407860326778
 21
 176.12273016727829
  0
LINE
  8
0
  6
CONTINUOUS
 62
     4
 10
-69.843407860326778
 20
 161.12273016727829
 11
-69.843407860326778
 21
 176.12273016727829
  0
LINE
  8
0
  6
CONTINUOUS
 62
     4
 10
-82.843407860326778
 20
 161.12273016727829
 11
-82.843407860326778
 21
 173.12273016727829
  0
LINE
  8
0
  6
CONTINUOUS
 62
     4
 10
-72.843407860326778
 20
 173.12273016727829
 11
-72.843407860326778
 21
 161.12273016727829
  0
LINE
  8
0
  6
CONTINUOUS
 62
     4
 10
-76.343407860326778
 20
 168.87261023782105
 11
-76.343407860326778
 21
 173.12273016727829
  0
LINE
  8
0
  6
CONTINUOUS
 62
     4
 10
-79.343407860326778
 20
 173.12273016727829
 11
-79.343407860326778
 21
 168.87261023782105
  0
LINE
  8
0
  6
CONTINUOUS
 62
     4
 10
-82.843407860326778
 20
 173.12273016727829
 11
-79.343407860326778
 21
 173.12273016727829
  0
LINE
  8
0
  6
CONTINUOUS
 62
     4
 10
-76.343407860326778
 20
 173.12273016727829
 11
-72.843407860326778
 21
 173.12273016727829
  0
LINE
  8
0
  6
CONTINUOUS
 62
     4
 10
-69.843407860326778
 20
 161.12273016727829
 11
-72.843407860326778
 21
 161.12273016727829
  0
LINE
  8
0
  6
CONTINUOUS
 62
     4
 10
-82.843407860326778
 20
 161.12273016727829
 11
-85.843407860326778
 21
 161.12273016727829
  0
LINE
  8
0
  6
CONTINUOUS
 62
     4
 10
-89.843407860326778
 20
 155.12273016727829
 11
-65.843407860326778
 21
 155.12273016727829
  0
LINE
  8
0
  6
CONTINUOUS
 62
     4
 10
 12.156612139673619
 20
 166.12272116727837
 11
-65.843407860326778
 21
 166.12272116727837
  0
LINE
  8
0
  6
CONTINUOUS
 62
     4
 10
-89.843407860326778
 20
 166.12272116727837
 11
-99.843407860326835
 21
 166.12272116727837
  0
LINE
  8
0
  6
CONTINUOUS
 62
     4
 10
-65.843407860326778
 20
 177.12273016727829
 11
-89.843407860326778
 21
 177.12273016727829
  0
LINE
  8
0
  6
CONTINUOUS
 62
     4
 10
-89.843407860326778
 20
 177.12273016727829
 11
-89.843407860326778
 21
 182.12273016727829
  0
LINE
  8
0
  6
CONTINUOUS
 62
     4
 10
-65.843407860326778
 20
 182.12273016727829
 11
-65.843407860326778
 21
 177.12273016727829
  0
LINE
  8
0
  6
CONTINUOUS
 62
     4
 10
-89.843407860326778
 20
 182.12273016727829
 11
-86.343413860326535
 21
 182.12273016727829
  0
LINE
  8
0
  6
CONTINUOUS
 62
     4
 10
-69.34340186032702
 20
 182.12273016727829
 11
-65.843407860326778
 21
 182.12273016727829
  0
LINE
  8
0
  6
CONTINUOUS
 62
     4
 10
-73.843407860326806
 20
 230.12272116727854
 11
-73.843407860326806
 21
 176.12273016727829
  0
LINE
  8
0
  6
CONTINUOUS
 62
     4
 10
-81.843407860326806
 20
 176.12273016727829
 11
-81.843407860326806
 21
 230.12272116727854
  0
LINE
  8
0
  6
CENTER
 62
     7
 10
 162.00961428905867
 20
 140.1227211672784
 11
-109.50017422444367
 21
 140.1227211672784
  0
LINE
  8
0
  6
CONTINUOUS
 62
     4
 10
-82.843407860326778
 20
 132.1227211672784
 11
-82.843407860326778
 21
 148.1227211672784
  0
LINE
  8
0
  6
CONTINUOUS
 62
     4
 10
-73.343407860326778
 20
 156.12273016727829
 11
-74.343407860326835
 21
 156.62273016727829
  0
LINE
  8
0
  6
CONTINUOUS
 62
     4
 10
-82.343407860326806
 20
 156.12273016727829
 11
-81.343407860326778
 21
 156.62273016727829
  0
LINE
  8
0
  6
CONTINUOUS
 62
     4
 10
-74.343407860326835
 20
 161.12273016727829
 11
-74.343407860326835
 21
 156.62273016727829
  0
LINE
  8
0
  6
CONTINUOUS
 62
     4
 10
-73.343407860326778
 20
 156.12273016727829
 11
-73.343407860326778
 21
 151.12272116727837
  0
LINE
  8
0
  6
CONTINUOUS
 62
     4
 10
-81.343407860326835
 20
 161.12273016727829
 11
-81.343407860326778
 21
 156.62273016727829
  0
LINE
  8
0
  6
CONTINUOUS
 62
     4
 10
-82.343407860326778
 20
 156.12273016727829
 11
-82.343407860326778
 21
 151.12272116727837
  0
LINE
  8
0
  6
CONTINUOUS
 62
     4
 10
-99.843407860326835
 20
 166.12272116727837
 11
-99.843407860326835
 21
 114.1227211672784
  0
LINE
  8
0
  6
CONTINUOUS
 62
     4
 10
-87.843407860326835
 20
 151.12272116727837
 11
-52.843407860326778
 21
 151.12272116727837
  0
LINE
  8
0
  6
CONTINUOUS
 62
     4
 10
-87.843407860326835
 20
 129.1227211672784
 11
-87.843407860326835
 21
 151.12272116727837
  0
LINE
  8
0
  6
CONTINUOUS
 62
     4
 10
-52.843407860326778
 20
 156.12272116727837
 11
-6.8434078603267565
 21
 156.12272116727837
  0
LINE
  8
0
  6
CONTINUOUS
 62
     4
 10
-52.843407860326778
 20
 156.12272116727837
 11
-52.843407860326778
 21
 150.1227211672784
  0
LINE
  8
0
  6
CONTINUOUS
 62
     4
 10
-87.843407860326835
 20
 129.1227211672784
 11
-52.843407860326778
 21
 129.1227211672784
  0
LINE
  8
0
  6
CONTINUOUS
 62
     4
 10
-81.843407860326806
 20
 124.12271216727854
 11
-81.843407860326806
 21
 129.1227211672784
  0
LINE
  8
0
  6
CONTINUOUS
 62
     3
 10
-85.343413860326535
 20
 50.122721167278272
 11
-70.34340186032702
 21
 50.122721167278272
  0
LINE
  8
0
  6
CONTINUOUS
 62
     3
 10
-86.343413860326535
 20
 60.122721167278272
 11
-86.343413860326535
 21
 98.122712167278507
  0
LINE
  8
0
  6
CONTINUOUS
 62
     3
 10
-69.34340186032702
 20
 98.122712167278507
 11
-69.34340186032702
 21
 60.122721167266022
  0
LINE
  8
0
  6
CONTINUOUS
 62
     3
 10
-85.343413860326535
 20
 50.122721167278272
 11
-86.343413860326535
 21
 60.122721167278272
  0
LINE
  8
0
  6
CONTINUOUS
 62
     3
 10
-70.34340186032702
 20
 50.122721167278272
 11
-69.34340186032702
 21
 60.122721167266022
  0
LINE
  8
0
  6
CONTINUOUS
 62
     4
 10
-65.843407860326778
 20
 103.12271216727852
 11
-89.843407860326778
 21
 103.12271216727852
  0
LINE
  8
0
  6
CONTINUOUS
 62
     4
 10
-89.843407860326778
 20
 103.12271216727852
 11
-89.843407860326778
 21
 98.122712167278507
  0
LINE
  8
0
  6
CONTINUOUS
 62
     4
 10
-65.843407860326778
 20
 98.122712167278507
 11
-65.843407860326778
 21
 103.12271216727852
  0
LINE
  8
0
  6
CONTINUOUS
 62
     4
 10
-89.843407860326778
 20
 93.122712167278522
 11
-86.343413860326535
 21
 93.122712167278522
  0
LINE
  8
0
  6
CONTINUOUS
 62
     4
 10
-69.34340186032702
 20
 93.122712167278522
 11
-65.843407860326778
 21
 93.122712167278522
  0
LINE
  8
0
  6
CONTINUOUS
 62
     4
 10
-73.843407860326806
 20
 50.122721167278272
 11
-73.843407860326806
 21
 104.37271216727852
  0
LINE
  8
0
  6
CONTINUOUS
 62
     4
 10
-81.843407860326806
 20
 103.12271216727852
 11
-81.843407860326806
 21
 50.122721167278272
  0
LINE
  8
0
  6
CONTINUOUS
 62
     4
 10
-69.843407860326806
 20
 124.12271216727854
 11
-69.843407860326806
 21
 109.12271216727852
  0
LINE
  8
0
  6
CONTINUOUS
 62
     4
 10
-85.843407860326778
 20
 124.12271216727854
 11
-85.843407860326778
 21
 109.12271216727852
  0
LINE
  8
0
  6
CONTINUOUS
 62
     4
 10
-85.843407860326778
 20
 109.12271216727852
 11
-85.843407860326778
 21
 124.12271216727854
  0
LINE
  8
0
  6
CONTINUOUS
 62
     4
 10
-69.843407860326778
 20
 109.12271216727852
 11
-69.843407860326778
 21
 124.12271216727854
  0
LINE
  8
0
  6
CONTINUOUS
 62
     4
 10
-82.843407860326778
 20
 109.12271216727852
 11
-82.843407860326778
 21
 121.12271216727854
  0
LINE
  8
0
  6
CONTINUOUS
 62
     4
 10
-72.843407860326778
 20
 121.12271216727854
 11
-72.843407860326778
 21
 109.12271216727852
  0
LINE
  8
0
  6
CONTINUOUS
 62
     4
 10
-76.343407860326778
 20
 116.87259223782115
 11
-76.343407860326778
 21
 121.12271216727854
  0
LINE
  8
0
  6
CONTINUOUS
 62
     4
 10
-79.343407860326778
 20
 121.12271216727854
 11
-79.343407860326778
 21
 116.87259223782115
  0
LINE
  8
0
  6
CONTINUOUS
 62
     4
 10
-82.843407860326778
 20
 121.12271216727854
 11
-79.343407860326778
 21
 121.12271216727854
  0
LINE
  8
0
  6
CONTINUOUS
 62
     4
 10
-76.343407860326778
 20
 121.12271216727854
 11
-72.843407860326778
 21
 121.12271216727854
  0
LINE
  8
0
  6
CONTINUOUS
 62
     4
 10
-69.843407860326778
 20
 109.12271216727852
 11
-72.843407860326778
 21
 109.12271216727852
  0
LINE
  8
0
  6
CONTINUOUS
 62
     4
 10
-82.843407860326778
 20
 109.12271216727852
 11
-85.843407860326778
 21
 109.12271216727852
  0
LINE
  8
0
  6
CONTINUOUS
 62
     4
 10
-89.843407860326778
 20
 103.12271216727852
 11
-65.843407860326778
 21
 103.12271216727852
  0
LINE
  8
0
  6
CONTINUOUS
 62
     4
 10
-65.843407860326778
 20
 125.12271216727854
 11
-89.843407860326778
 21
 125.12271216727854
  0
LINE
  8
0
  6
CONTINUOUS
 62
     4
 10
-73.343407860326778
 20
 104.12271216727852
 11
-74.343407860326835
 21
 104.62271216727852
  0
LINE
  8
0
  6
CONTINUOUS
 62
     4
 10
-82.343407860326806
 20
 104.12271216727852
 11
-81.343407860326778
 21
 104.62271216727852
  0
LINE
  8
0
  6
CONTINUOUS
 62
     4
 10
-74.343407860326835
 20
 109.12271216727852
 11
-74.343407860326835
 21
 104.62271216727852
  0
LINE
  8
0
  6
CONTINUOUS
 62
     4
 10
-81.343407860326835
 20
 109.12271216727852
 11
-81.343407860326778
 21
 104.62271216727852
  0
LINE
  8
0
  6
CONTINUOUS
 62
     4
 10
-99.843407860326835
 20
 114.1227211672784
 11
-89.843407860326778
 21
 114.1227211672784
  0
LINE
  8
0
  6
CONTINUOUS
 62
     4
 10
-65.843407860326778
 20
 114.1227211672784
 11
 12.156612139673591
 21
 114.12272116727834
  0
LINE
  8
0
  6
CONTINUOUS
 62
     4
 10
-80.843407860326778
 20
 150.1227211672784
 11
-82.843407860326778
 21
 148.1227211672784
  0
LINE
  8
0
  6
CONTINUOUS
 62
     4
 10
-82.843407860326778
 20
 132.1227211672784
 11
-80.843407860326778
 21
 130.1227211672784
  0
LINE
  8
0
  6
CONTINUOUS
 62
     4
 10
-46.843407860326785
 20
 156.12272116727837
 11
-46.843407860326785
 21
 150.1227211672784
  0
LINE
  8
0
  6
CONTINUOUS
 62
     4
 10
-40.843407860326785
 20
 156.12272116727837
 11
-40.843407860326785
 21
 150.1227211672784
  0
LINE
  8
0
  6
CENTER
 62
     7
 10
-46.843407860326785
 20
 156.12272116727837
 11
-40.843407860326785
 21
 150.1227211672784
  0
LINE
  8
0
  6
CENTER
 62
     7
 10
-40.843407860326785
 20
 156.12272116727837
 11
-46.843407860326785
 21
 150.1227211672784
  0
LINE
  8
0
  6
CONTINUOUS
 62
     4
 10
-34.843407860326785
 20
 156.12272116727837
 11
-34.843407860326785
 21
 150.1227211672784
  0
LINE
  8
0
  6
CENTER
 62
     7
 10
-40.843407860326785
 20
 156.12272116727837
 11
-34.843407860326785
 21
 150.1227211672784
  0
LINE
  8
0
  6
CENTER
 62
     7
 10
-34.843407860326785
 20
 156.12272116727837
 11
-40.843407860326785
 21
 150.1227211672784
  0
LINE
  8
0
  6
CONTINUOUS
 62
     4
 10
-28.843407860326771
 20
 156.12272116727837
 11
-28.843407860326771
 21
 150.1227211672784
  0
LINE
  8
0
  6
CENTER
 62
     7
 10
-34.843407860326771
 20
 156.12272116727837
 11
-28.843407860326771
 21
 150.1227211672784
  0
LINE
  8
0
  6
CENTER
 62
     7
 10
-28.843407860326771
 20
 156.12272116727837
 11
-34.843407860326771
 21
 150.1227211672784
  0
LINE
  8
0
  6
CONTINUOUS
 62
     4
 10
-22.843407860326757
 20
 156.12272116727837
 11
-22.843407860326757
 21
 150.1227211672784
  0
LINE
  8
0
  6
CENTER
 62
     7
 10
-28.84340786032676
 20
 156.12272116727837
 11
-22.843407860326757
 21
 150.1227211672784
  0
LINE
  8
0
  6
CENTER
 62
     7
 10
-22.843407860326757
 20
 156.12272116727837
 11
-28.84340786032676
 21
 150.1227211672784
  0
LINE
  8
0
  6
CONTINUOUS
 62
     4
 10
-16.843407860326757
 20
 156.12272116727837
 11
-16.843407860326757
 21
 150.1227211672784
  0
LINE
  8
0
  6
CENTER
 62
     7
 10
-22.843407860326757
 20
 156.12272116727837
 11
-16.843407860326757
 21
 150.1227211672784
  0
LINE
  8
0
  6
CENTER
 62
     7
 10
-16.843407860326757
 20
 156.12272116727837
 11
-22.843407860326757
 21
 150.1227211672784
  0
LINE
  8
0
  6
CONTINUOUS
 62
     3
 10
-6.8434078603267565
 20
 161.12272116727837
 11
-6.8434078603267565
 21
 150.1227211672784
  0
LINE
  8
0
  6
CONTINUOUS
 62
     3
 10
-13.843407860326757
 20
 156.12272116727837
 11
-13.843407860326757
 21
 161.12272116727837
  0
LINE
  8
0
  6
CONTINUOUS
 62
     3
 10
-11.843407860326757
 20
 160.12272116727837
 11
 14.156592139673236
 21
 160.12272116727837
  0
LINE
  8
0
  6
CONTINUOUS
 62
     3
 10
-11.843407860326757
 20
 160.12272116727837
 11
-11.843407860326757
 21
 161.12272116727837
  0
LINE
  8
0
  6
CENTER
 62
     7
 10
-11.843407860326757
 20
 161.12272116727837
 11
 14.156592139673236
 21
 161.12272116727837
  0
LINE
  8
0
  6
CONTINUOUS
 62
     3
 10
-13.843407860326757
 20
 161.12272116727837
 11
-11.843407860326757
 21
 161.12272116727837
  0
LINE
  8
0
  6
CONTINUOUS
 62
     3
 10
 12.156612139673619
 20
 166.12272116727837
 11
 12.156612139673619
 21
 160.12272116727837
  0
LINE
  8
0
  6
CONTINUOUS
 62
     3
 10
 28.156592139673243
 20
 166.12272116727888
 11
 28.156592139673243
 21
 152.12272116727837
  0
LINE
  8
0
  6
CONTINUOUS
 62
     3
 10
 14.156592139673236
 20
 166.12272116727837
 11
 14.156592139673236
 21
 160.12272116727837
  0
LINE
  8
0
  6
CONTINUOUS
 62
     3
 10
-6.8434078603267565
 20
 152.12272116727837
 11
 28.156592139673243
 21
 152.12272116727837
  0
LINE
  8
0
  6
CONTINUOUS
 62
     3
 10
 14.156592139673236
 20
 166.12272116727837
 11
 28.156592139673243
 21
 166.12272116727837
  0
LINE
  8
0
  6
CENTER
 62
     7
 10
 21.156592139673243
 20
 170.93446964785812
 11
 21.156592139673243
 21
 153.22119014118675
  0
LINE
  8
0
  6
CONTINUOUS
 62
     3
 10
 24.156592139673243
 20
 166.12272116727837
 11
 24.156592139673243
 21
 156.12272116727837
  0
LINE
  8
0
  6
CONTINUOUS
 62
     3
 10
 18.156592139673236
 20
 166.12272116727837
 11
 18.156592139673236
 21
 156.12272116727837
  0
LINE
  8
0
  6
CONTINUOUS
 62
     3
 10
 18.156592139673236
 20
 156.12272116727837
 11
 24.156592139673243
 21
 156.12272116727837
  0
LINE
  8
0
  6
CONTINUOUS
 62
     3
 10
 11.156612139673626
 20
 166.12272116727837
 11
 11.156612139673626
 21
 180.12272116727837
  0
LINE
  8
0
  6
CONTINUOUS
 62
     3
 10
 11.156612139673626
 20
 180.12272116727837
 11
-0.8433878603263807
 21
 180.12272116727837
  0
LINE
  8
0
  6
CONTINUOUS
 62
     3
 10
 57.156592139673215
 20
 146.1227211672784
 11
 57.156592139673215
 21
 134.1227211672784
  0
LINE
  8
0
  6
CONTINUOUS
 62
     3
 10
 57.156592139673215
 20
 146.1227211672784
 11
 42.156592139673215
 21
 146.1227211672784
  0
LINE
  8
0
  6
CONTINUOUS
 62
     3
 10
 42.156592139673215
 20
 134.1227211672784
 11
 57.156592139673215
 21
 134.1227211672784
  0
LINE
  8
0
  6
CONTINUOUS
 62
     3
 10
 42.156592139673215
 20
 150.1227211672784
 11
 42.156592139673215
 21
 130.1227211672784
  0
LINE
  8
0
  6
CONTINUOUS
 62
     3
 10
 28.156592139673215
 20
 148.6227211672784
 11
 38.156592139673215
 21
 148.6227211672784
  0
LINE
  8
0
  6
CONTINUOUS
 62
     3
 10
 28.156592139673215
 20
 131.6227211672784
 11
 38.156592139673215
 21
 131.6227211672784
  0
LINE
  8
0
  6
CONTINUOUS
 62
     4
 10
-80.843407860326778
 20
 130.1227211672784
 11
 28.156592139673215
 21
 130.1227211672784
  0
LINE
  8
0
  6
CONTINUOUS
 62
     4
 10
 38.156592139673215
 20
 130.1227211672784
 11
 104.72335015062033
 21
 130.1227211672784
  0
LINE
  8
0
  6
CONTINUOUS
 62
     4
 10
-80.843407860326778
 20
 150.1227211672784
 11
 28.156592139673215
 21
 150.1227211672784
  0
LINE
  8
0
  6
CONTINUOUS
 62
     4
 10
 38.156592139673215
 20
 150.1227211672784
 11
 109.96087046612128
 21
 150.1227211672784
  0
LINE
  8
0
  6
CONTINUOUS
 62
     3
 10
 28.156592139673215
 20
 150.1227211672784
 11
 28.156592139673215
 21
 148.6227211672784
  0
LINE
  8
0
  6
CONTINUOUS
 62
     3
 10
 28.156592139673215
 20
 131.6227211672784
 11
 28.156592139673215
 21
 130.1227211672784
  0
LINE
  8
0
  6
CONTINUOUS
 62
     3
 10
 38.156592139673215
 20
 150.1227211672784
 11
 38.156592139673215
 21
 148.6227211672784
  0
LINE
  8
0
  6
CONTINUOUS
 62
     3
 10
 38.156592139673215
 20
 131.6227211672784
 11
 38.156592139673215
 21
 130.1227211672784
  0
LINE
  8
0
  6
CENTER
 62
     7
 10
 28.156592139673215
 20
 145.1227211672784
 11
 38.156592139673215
 21
 135.1227211672784
  0
LINE
  8
0
  6
CENTER
 62
     7
 10
 38.156592139673215
 20
 145.1227211672784
 11
 28.156592139673215
 21
 135.1227211672784
  0
LINE
  8
0
  6
CENTER
 62
     7
 10
 5.1566121396736193
 20
 184.93446964785812
 11
 5.1566121396736193
 21
 167.22119014118675
  0
LINE
  8
0
  6
CONTINUOUS
 62
     3
 10
 8.1566121396736193
 20
 180.12272116727837
 11
 8.1566121396736193
 21
 170.12272116727837
  0
LINE
  8
0
  6
CONTINUOUS
 62
     3
 10
 2.1566121396736122
 20
 180.12272116727837
 11
 2.1566121396736122
 21
 170.12272116727837
  0
LINE
  8
0
  6
CONTINUOUS
 62
     3
 10
 2.1566121396736122
 20
 170.12272116727837
 11
 8.1566121396736193
 21
 170.12272116727837
  0
LINE
  8
0
  6
CENTER
 62
     7
 10
-0.8433878603263807
 20
 165.12272116727837
 11
 12.156612139673619
 21
 165.12272116727837
  0
LINE
  8
0
  6
CONTINUOUS
 62
     4
 10
-52.843407860326778
 20
 150.62272116727837
 11
-46.843407860326785
 21
 150.62272116727837
  0
LINE
  8
0
  6
CONTINUOUS
 62
     4
 10
-16.843407860326757
 20
 150.62272116727837
 11
-6.8434078603267565
 21
 150.62272116727837
  0
LINE
  8
0
  6
CONTINUOUS
 62
     4
 10
-57.343407860326806
 20
 187.12273016727829
 11
-57.343407860326806
 21
 170.12273016727829
  0
LINE
  8
0
  6
CONTINUOUS
 62
     4
 10
-98.343407860326806
 20
 187.12273016727829
 11
-98.343407860326806
 21
 170.12273016727829
  0
LINE
  8
0
  6
CONTINUOUS
 62
     4
 10
-98.343407860326806
 20
 170.12273016727829
 11
-89.843407860326778
 21
 170.12273016727829
  0
LINE
  8
0
  6
CONTINUOUS
 62
     4
 10
-57.343407860326806
 20
 170.12273016727829
 11
-65.843407860326778
 21
 170.12273016727829
  0
LINE
  8
0
  6
CONTINUOUS
 62
     4
 10
-57.343407860326806
 20
 187.12273016727829
 11
-69.34340186032702
 21
 187.12273016727829
  0
LINE
  8
0
  6
CONTINUOUS
 62
     4
 10
-86.343413860326535
 20
 187.12273016727829
 11
-98.343407860326806
 21
 187.12273016727829
  0
LINE
  8
0
  6
CENTER
 62
     7
 10
-8.3433878603263807
 20
 197.79101622898293
 11
-8.3433878603263807
 21
 166.12272116727837
  0
LINE
  8
0
  6
CONTINUOUS
 62
     4
 10
-0.8433878603263807
 20
 187.62275516727834
 11
-5.3433878603263807
 21
 187.62275516727834
  0
LINE
  8
0
  6
CONTINUOUS
 62
     4
 10
-11.343387860326381
 20
 187.62275516727834
 11
-15.843387860326381
 21
 187.62275516727834
  0
LINE
  8
0
  6
CONTINUOUS
 62
     4
 10
-15.843387860326381
 20
 187.62275516727834
 11
-15.843387860326381
 21
 166.12272116727837
  0
LINE
  8
0
  6
CONTINUOUS
 62
     3
 10
-0.8433878603263807
 20
 187.62275516727834
 11
-0.8433878603263807
 21
 166.12272116727837
  0
LINE
  8
0
  6
CENTER
 62
     7
 10
-0.8433878603263807
 20
 165.12272116727837
 11
-0.8433878603263807
 21
 166.12272116727837
  0
LINE
  8
0
  6
CONTINUOUS
 62
     4
 10
-52.843407860326778
 20
 124.12272116727839
 11
-6.8434078603267565
 21
 124.12272116727839
  0
LINE
  8
0
  6
CONTINUOUS
 62
     4
 10
-52.843407860326778
 20
 124.12272116727839
 11
-52.843407860326778
 21
 130.1227211672784
  0
LINE
  8
0
  6
CONTINUOUS
 62
     4
 10
-46.843407860326785
 20
 124.12272116727839
 11
-46.843407860326785
 21
 130.1227211672784
  0
LINE
  8
0
  6
CONTINUOUS
 62
     4
 10
-40.843407860326785
 20
 124.12272116727839
 11
-40.843407860326785
 21
 130.1227211672784
  0
LINE
  8
0
  6
CENTER
 62
     7
 10
-46.843407860326785
 20
 124.12272116727839
 11
-40.843407860326785
 21
 130.1227211672784
  0
LINE
  8
0
  6
CENTER
 62
     7
 10
-40.843407860326785
 20
 124.12272116727839
 11
-46.843407860326785
 21
 130.1227211672784
  0
LINE
  8
0
  6
CONTINUOUS
 62
     4
 10
-34.843407860326785
 20
 124.12272116727839
 11
-34.843407860326785
 21
 130.1227211672784
  0
LINE
  8
0
  6
CENTER
 62
     7
 10
-40.843407860326785
 20
 124.12272116727839
 11
-34.843407860326785
 21
 130.1227211672784
  0
LINE
  8
0
  6
CENTER
 62
     7
 10
-34.843407860326785
 20
 124.12272116727839
 11
-40.843407860326785
 21
 130.1227211672784
  0
LINE
  8
0
  6
CONTINUOUS
 62
     4
 10
-28.843407860326771
 20
 124.12272116727839
 11
-28.843407860326771
 21
 130.1227211672784
  0
LINE
  8
0
  6
CENTER
 62
     7
 10
-34.843407860326771
 20
 124.12272116727839
 11
-28.843407860326771
 21
 130.1227211672784
  0
LINE
  8
0
  6
CENTER
 62
     7
 10
-28.843407860326771
 20
 124.12272116727839
 11
-34.843407860326771
 21
 130.1227211672784
  0
LINE
  8
0
  6
CONTINUOUS
 62
     4
 10
-22.843407860326757
 20
 124.12272116727839
 11
-22.843407860326757
 21
 130.1227211672784
  0
LINE
  8
0
  6
CENTER
 62
     7
 10
-28.84340786032676
 20
 124.12272116727839
 11
-22.843407860326757
 21
 130.1227211672784
  0
LINE
  8
0
  6
CENTER
 62
     7
 10
-22.843407860326757
 20
 124.12272116727839
 11
-28.84340786032676
 21
 130.1227211672784
  0
LINE
  8
0
  6
CONTINUOUS
 62
     4
 10
-16.843407860326757
 20
 124.12272116727839
 11
-16.843407860326757
 21
 130.1227211672784
  0
LINE
  8
0
  6
CENTER
 62
     7
 10
-22.843407860326757
 20
 124.12272116727839
 11
-16.843407860326757
 21
 130.1227211672784
  0
LINE
  8
0
  6
CENTER
 62
     7
 10
-16.843407860326757
 20
 124.12272116727839
 11
-22.843407860326757
 21
 130.1227211672784
  0
LINE
  8
0
  6
CONTINUOUS
 62
     3
 10
-6.8434078603267565
 20
 119.12272116727839
 11
-6.8434078603267565
 21
 130.1227211672784
  0
LINE
  8
0
  6
CONTINUOUS
 62
     3
 10
-13.843407860326757
 20
 124.12272116727839
 11
-13.843407860326757
 21
 119.12272116727839
  0
LINE
  8
0
  6
CONTINUOUS
 62
     3
 10
-11.843407860326757
 20
 120.12272116727839
 11
 14.156592139673236
 21
 120.12272116727839
  0
LINE
  8
0
  6
CONTINUOUS
 62
     3
 10
-11.843407860326757
 20
 120.12272116727839
 11
-11.843407860326757
 21
 119.12272116727839
  0
LINE
  8
0
  6
CENTER
 62
     7
 10
-11.843407860326757
 20
 119.12272116727839
 11
 14.156592139673236
 21
 119.12272116727839
  0
LINE
  8
0
  6
CONTINUOUS
 62
     3
 10
-13.843407860326757
 20
 119.12272116727839
 11
-11.843407860326757
 21
 119.12272116727839
  0
LINE
  8
0
  6
CONTINUOUS
 62
     3
 10
 12.156612139673619
 20
 114.1227211672784
 11
 12.156612139673619
 21
 120.12272116727839
  0
LINE
  8
0
  6
CONTINUOUS
 62
     3
 10
 14.156592139673236
 20
 114.1227211672784
 11
 14.156592139673236
 21
 120.12272116727839
  0
LINE
  8
0
  6
CONTINUOUS
 62
     3
 10
 24.156592139673243
 20
 114.1227211672784
 11
 24.156592139673243
 21
 124.12272116727839
  0
LINE
  8
0
  6
CONTINUOUS
 62
     3
 10
 18.156592139673236
 20
 114.1227211672784
 11
 18.156592139673236
 21
 124.12272116727839
  0
LINE
  8
0
  6
CONTINUOUS
 62
     3
 10
 18.156592139673236
 20
 124.12272116727839
 11
 24.156592139673243
 21
 124.12272116727839
  0
LINE
  8
0
  6
CONTINUOUS
 62
     3
 10
 2.1566121396736122
 20
 110.12272116727841
 11
 8.1566121396736193
 21
 110.12272116727841
  0
LINE
  8
0
  6
CENTER
 62
     7
 10
-0.8433878603263807
 20
 115.1227211672784
 11
 12.156612139673619
 21
 115.1227211672784
  0
LINE
  8
0
  6
CONTINUOUS
 62
     4
 10
-52.843407860326778
 20
 129.6227211672784
 11
-46.843407860326785
 21
 129.6227211672784
  0
LINE
  8
0
  6
CONTINUOUS
 62
     4
 10
-16.843407860326757
 20
 129.6227211672784
 11
-6.8434078603267565
 21
 129.6227211672784
  0
LINE
  8
0
  6
CENTER
 62
     7
 10
-0.8433878603263807
 20
 115.1227211672784
 11
-0.8433878603263807
 21
 114.1227211672784
  0
LINE
  8
0
  6
CONTINUOUS
 62
     3
 10
 28.156592139673243
 20
 114.12272116727789
 11
 28.156592139673243
 21
 128.1227211672784
  0
LINE
  8
0
  6
CONTINUOUS
 62
     3
 10
-6.8434078603267565
 20
 128.1227211672784
 11
 28.156592139673243
 21
 128.1227211672784
  0
LINE
  8
0
  6
CONTINUOUS
 62
     3
 10
 14.156592139673236
 20
 114.1227211672784
 11
 28.156592139673243
 21
 114.1227211672784
  0
LINE
  8
0
  6
CENTER
 62
     7
 10
 21.156592139673243
 20
 109.31097268669866
 11
 21.156592139673243
 21
 127.02425219337009
  0
LINE
  8
0
  6
CONTINUOUS
 62
     3
 10
 11.156612139673626
 20
 114.1227211672784
 11
 11.156612139673626
 21
 100.12272116727841
  0
LINE
  8
0
  6
CONTINUOUS
 62
     3
 10
 11.156612139673626
 20
 100.12272116727841
 11
-0.8433878603263807
 21
 100.12272116727841
  0
LINE
  8
0
  6
CENTER
 62
     7
 10
 5.1566121396736193
 20
 100.31097268669866
 11
 5.1566121396736193
 21
 118.02425219337009
  0
LINE
  8
0
  6
CONTINUOUS
 62
     3
 10
 8.1566121396736193
 20
 100.12272116727841
 11
 8.1566121396736193
 21
 110.12272116727841
  0
LINE
  8
0
  6
CONTINUOUS
 62
     3
 10
 2.1566121396736122
 20
 100.12272116727841
 11
 2.1566121396736122
 21
 110.12272116727841
  0
LINE
  8
0
  6
CONTINUOUS
 62
     4
 10
-15.843387860326381
 20
 92.622687167278471
 11
 83.156574139673495
 21
 92.622687167278457
  0
LINE
  8
0
  6
CONTINUOUS
 62
     4
 10
-15.843387860326381
 20
 92.622687167278471
 11
-15.843387860326381
 21
 114.1227211672784
  0
LINE
  8
0
  6
CONTINUOUS
 62
     3
 10
-0.8433878603263807
 20
 92.622687167278471
 11
-0.8433878603263807
 21
 114.1227211672784
  0
LINE
  8
0
  6
CONTINUOUS
 62
     4
 10
-0.8433878603263807
 20
 184.62275516727834
 11
 71.156574139673495
 21
 184.62275516727834
  0
LINE
  8
0
  6
CONTINUOUS
 62
     4
 10
 71.156574139673495
 20
 187.62275516727834
 11
 83.156574139673495
 21
 187.62275516727834
  0
LINE
  8
0
  6
CONTINUOUS
 62
     4
 10
-0.8433878603263807
 20
 97.622687167278471
 11
 71.156574139673495
 21
 97.622687167278471
  0
LINE
  8
0
  6
CONTINUOUS
 62
     4
 10
 71.156574139673495
 20
 187.62275516727834
 11
 71.156574139673495
 21
 150.1227211672784
  0
LINE
  8
0
  6
CONTINUOUS
 62
     4
 10
 71.156574139673495
 20
 130.1227211672784
 11
 71.156574139673495
 21
 92.622687167278457
  0
LINE
  8
0
  6
CONTINUOUS
 62
     3
 10
 42.156592139673215
 20
 165.1227211672784
 11
 42.156592139673215
 21
 150.1227211672784
  0
LINE
  8
0
  6
CONTINUOUS
 62
     3
 10
 39.156592139673215
 20
 165.1227211672784
 11
 39.156592139673215
 21
 150.1227211672784
  0
LINE
  8
0
  6
CONTINUOUS
 62
     3
 10
 39.156592139673215
 20
 165.1227211672784
 11
 42.156592139673215
 21
 165.1227211672784
  0
LINE
  8
0
  6
CONTINUOUS
 62
     3
 10
 39.156592139673215
 20
 115.1227211672784
 11
 42.156592139673215
 21
 115.1227211672784
  0
LINE
  8
0
  6
CONTINUOUS
 62
     3
 10
 42.156592139673215
 20
 115.1227211672784
 11
 42.156592139673215
 21
 130.1227211672784
  0
LINE
  8
0
  6
CONTINUOUS
 62
     3
 10
 39.156592139673215
 20
 115.1227211672784
 11
 39.156592139673215
 21
 130.1227211672784
  0
LINE
  8
0
  6
CENTER
 62
     7
 10
 42.156592139673215
 20
 147.1227211672784
 11
 58.156592139673215
 21
 147.1227211672784
  0
LINE
  8
0
  6
CONTINUOUS
 62
     3
 10
 58.156592139673215
 20
 147.1227211672784
 11
 58.156592139673215
 21
 133.1227211672784
  0
LINE
  8
0
  6
CENTER
 62
     7
 10
 42.156592139673215
 20
 133.1227211672784
 11
 58.156592139673215
 21
 133.1227211672784
  0
LINE
  8
0
  6
CONTINUOUS
 62
     3
 10
 58.156592139673215
 20
 147.1227211672784
 11
 59.656592139673215
 21
 140.1227211672784
  0
LINE
  8
0
  6
CONTINUOUS
 62
     3
 10
 59.656592139673215
 20
 140.1227211672784
 11
 58.156592139673215
 21
 133.1227211672784
  0
LINE
  8
0
  6
CONTINUOUS
 62
     3
 10
 57.156592139673215
 20
 146.1227211672784
 11
 58.156592139673215
 21
 146.1227211672784
  0
LINE
  8
0
  6
CONTINUOUS
 62
     3
 10
 57.156592139673215
 20
 134.1227211672784
 11
 58.156592139673215
 21
 134.1227211672784
  0
LINE
  8
0
  6
CONTINUOUS
 62
     3
 10
 83.156574139673495
 20
 175.62275516727834
 11
 88.156574139673495
 21
 175.62275516727834
  0
LINE
  8
0
  6
CONTINUOUS
 62
     3
 10
 88.156574139673495
 20
 170.62275516727834
 11
 83.156574139673495
 21
 170.62275516727834
  0
LINE
  8
0
  6
CONTINUOUS
 62
     3
 10
 88.156574139673495
 20
 170.62275516727834
 11
 88.156574139673495
 21
 175.62275516727834
  0
LINE
  8
0
  6
CONTINUOUS
 62
     3
 10
 88.156574139673495
 20
 157.1227211672784
 11
 88.156574139673495
 21
 163.62275516727834
  0
LINE
  8
0
  6
CONTINUOUS
 62
     3
 10
 83.156574139673495
 20
 163.62275516727834
 11
 88.156574139673495
 21
 163.62275516727834
  0
LINE
  8
0
  6
CONTINUOUS
 62
     3
 10
 107.69641947682501
 20
 157.1227211672784
 11
 88.156574139673495
 21
 157.1227211672784
  0
LINE
  8
0
  6
CONTINUOUS
 62
     4
 10
 83.156574139673495
 20
 187.62275516727834
 11
 83.156574139673495
 21
 175.62275516727834
  0
LINE
  8
0
  6
CONTINUOUS
 62
     4
 10
 83.156574139673495
 20
 170.62275516727834
 11
 83.156574139673495
 21
 163.62275516727834
  0
CIRCLE
  8
0
  6
CONTINUOUS
 62
     3
 10
 86.156574139673495
 20
 167.12275516727834
 40
 3
  0
CIRCLE
  8
0
  6
CONTINUOUS
 62
     3
 10
 96.156574139673495
 20
 167.12275516727834
 40
 3
  0
LINE
  8
0
  6
CONTINUOUS
 62
     3
 10
 83.156574139673495
 20
 104.62268716727846
 11
 88.156574139673495
 21
 104.62268716727846
  0
LINE
  8
0
  6
CONTINUOUS
 62
     3
 10
 88.156574139673495
 20
 109.62268716727846
 11
 83.156574139673495
 21
 109.62268716727846
  0
LINE
  8
0
  6
CONTINUOUS
 62
     3
 10
 88.156574139673495
 20
 109.62268716727846
 11
 88.156574139673495
 21
 104.62268716727846
  0
LINE
  8
0
  6
CONTINUOUS
 62
     3
 10
 88.156574139673495
 20
 123.12272116727839
 11
 88.156574139673495
 21
 116.62268716727847
  0
LINE
  8
0
  6
CONTINUOUS
 62
     3
 10
 83.156574139673495
 20
 116.62268716727847
 11
 88.156574139673495
 21
 116.62268716727847
  0
LINE
  8
0
  6
CONTINUOUS
 62
     3
 10
 88.156574139673495
 20
 123.12272116727839
 11
 104.06899295675203
 21
 123.12272116727839
  0
LINE
  8
0
  6
CONTINUOUS
 62
     4
 10
 83.156574139673495
 20
 109.62268716727846
 11
 83.156574139673495
 21
 116.62268716727847
  0
CIRCLE
  8
0
  6
CONTINUOUS
 62
     3
 10
 86.156574139673495
 20
 113.12268716727846
 40
 3
  0
CIRCLE
  8
0
  6
CONTINUOUS
 62
     3
 10
 96.156574139673495
 20
 113.12268716727846
 40
 3
  0
LINE
  8
0
  6
CONTINUOUS
 62
     4
 10
 83.156574139673495
 20
 92.622687167278457
 11
 83.156574139673495
 21
 104.62268716727846
  0
TEXT
  8
218
  6
CONTINUOUS
 62
     96
 10
-63.413090766617458
 20
-197.08028567285763
 11
-52.1064240999508
 21
-197.0802856728576
 40
 6.4000000000000012
 41
 0.8
  1
番号
 50
 0.0000000000000495
 72
  5
  0
TEXT
  8
218
  6
CONTINUOUS
 62
     96
 10
-32.768918092641165
 20
-197.08028567285763
 11
-1.195584759307831
 21
-197.08028567285757
 40
 6.4000000000000012
 41
 0.8
  1
名称
 50
 0.0000000000000495
 72
  5
  0
TEXT
  8
218
  6
CONTINUOUS
 62
     96
 10
 130.99457140888455
 20
-197.08028567285757
 11
 142.30123807555123
 21
-197.08028567285754
 40
 6.4000000000000012
 41
 0.8
  1
数量
 50
 0.0000000000000495
 72
  5
  0
TEXT
  8
218
  6
CONTINUOUS
 62
     96
 10
-62.627571362994892
 20
-94.680000000000391
 11
-52.387571362994898
 21
-94.680000000000391
 40
 6.4000000000000012
 41
 0.8
  1
10
 50
 0.0000000000000495
 72
  5
  0
TEXT
  8
218
  6
CONTINUOUS
 62
     96
 10
-62.627571362994892
 20
-84.440000000000268
 11
-52.387571362994898
 21
-84.440000000000268
 40
 6.4000000000000012
 41
 0.8
  1
11
 50
 0.0000000000000495
 72
  5
  0
TEXT
  8
218
  6
CONTINUOUS
 62
     96
 10
-62.627571362994779
 20
-74.200000000000301
 11
-52.387571362994784
 21
-74.200000000000301
 40
 6.4000000000000012
 41
 0.8
  1
12
 50
 0.0000000000000495
 72
  5
  0
TEXT
  8
218
  6
CONTINUOUS
 62
     96
 10
-62.627571362994892
 20
-63.960000000000306
 11
-52.387571362994898
 21
-63.960000000000306
 40
 6.4000000000000012
 41
 0.8
  1
13
 50
 0.0000000000000495
 72
  5
  0
TEXT
  8
218
  6
CONTINUOUS
 62
     96
 10
-62.627571362995056
 20
-53.72000000000029
 11
-52.387571362995068
 21
-53.72000000000029
 40
 6.4000000000000012
 41
 0.8
  1
14
 50
 0.0000000000000495
 72
  5
  0
TEXT
  8
218
  6
CONTINUOUS
 62
     96
 10
-62.627571362994892
 20
-43.480000000000295
 11
-52.387571362994898
 21
-43.480000000000295
 40
 6.4000000000000012
 41
 0.8
  1
15
 50
 0.0000000000000495
 72
  5
  0
TEXT
  8
218
  6
CONTINUOUS
 62
     96
 10
-62.627571362995056
 20
-33.240000000000336
 11
-52.387571362995068
 21
-33.240000000000329
 40
 6.4000000000000012
 41
 0.8
  1
16
 50
 0.0000000000000495
 72
  5
  0
TEXT
  8
218
  6
CONTINUOUS
 62
     96
 10
-62.627571362995056
 20
-23.000000000000316
 11
-52.387571362995068
 21
-23.000000000000302
 40
 6.4000000000000012
 41
 0.8
  1
17
 50
 0.0000000000000495
 72
  5
  0
TEXT
  8
218
  6
CONTINUOUS
 62
     96
 10
-62.627571362994892
 20
-12.760000000000318
 11
-52.387571362994898
 21
-12.760000000000309
 40
 6.4000000000000012
 41
 0.8
  1
18
 50
 0.0000000000000495
 72
  5
  0
TEXT
  8
218
  6
CONTINUOUS
 62
     96
 10
-60.067571324848124
 20
-104.91942498814076
 11
-54.947571324848127
 21
-104.91942498814076
 40
 6.4000000000000012
 41
 0.8
  1
9
 50
 0.0000000000000495
 72
  5
  0
TEXT
  8
218
  6
CONTINUOUS
 62
     96
 10
-60.067571324847783
 20
-115.15886120384901
 11
-54.947571324847786
 21
-115.15886120384901
 40
 6.4000000000000012
 41
 0.8
  1
8
 50
 0.0000000000000495
 72
  5
  0
TEXT
  8
218
  6
CONTINUOUS
 62
     96
 10
-60.067571324847783
 20
-125.39828229671102
 11
-54.947571324847786
 21
-125.39828229671102
 40
 6.4000000000000012
 41
 0.8
  1
7
 50
 0.0000000000000495
 72
  5
  0
TEXT
  8
218
  6
CONTINUOUS
 62
     96
 10
-60.067571324848124
 20
-135.63770728485136
 11
-54.947571324848127
 21
-135.63770728485133
 40
 6.4000000000000012
 41
 0.8
  1
6
 50
 0.0000000000000495
 72
  5
  0
TEXT
  8
218
  6
CONTINUOUS
 62
     96
 10
-60.067571324848124
 20
-145.87713593913654
 11
-54.947571324848127
 21
-145.87713593913651
 40
 6.4000000000000012
 41
 0.8
  1
5
 50
 0.0000000000000495
 72
  5
  0
TEXT
  8
218
  6
CONTINUOUS
 62
     96
 10
-60.067571324848124
 20
-156.11656081271002
 11
-54.947571324848127
 21
-156.11656081270999
 40
 6.4000000000000012
 41
 0.8
  1
4
 50
 0.0000000000000495
 72
  5
  0
TEXT
  8
218
  6
CONTINUOUS
 62
     96
 10
-60.067571324847783
 20
-166.35598580085065
 11
-54.947571324847786
 21
-166.35598580085062
 40
 6.4000000000000012
 41
 0.8
  1
3
 50
 0.0000000000000495
 72
  5
  0
TEXT
  8
218
  6
CONTINUOUS
 62
     96
 10
-60.067571324847783
 20
-176.59541823584732
 11
-54.947571324847786
 21
-176.59541823584729
 40
 6.4000000000000012
 41
 0.8
  1
2
 50
 0.0000000000000495
 72
  5
  0
TEXT
  8
218
  6
CONTINUOUS
 62
     96
 10
-60.067571324847783
 20
-186.83484700469918
 11
-54.947571324847786
 21
-186.83484700469916
 40
 6.4000000000000012
 41
 0.8
  1
1
 50
 0.0000000000000495
 72
  5
  0
TEXT
  8
218
  6
CONTINUOUS
 62
     96
 10
-46.874604431690436
 20
-176.5999961047213
 11
-11.03460443169044
 21
-176.59999610472124
 40
 6.4000000000000012
 41
 0.8
  1
ノズルホルダー
 50
 0.0000000000000495
 72
  5
  0
TEXT
  8
218
  6
CONTINUOUS
 62
     96
 10
-46.874604431690265
 20
-156.1154029984333
 11
-3.3546050129774727
 21
-156.11540299843324
 40
 6.4000000000000012
 41
 0.8
  1
バルブガイド
 50
 0.0000000000000495
 72
  5
  0
TEXT
  8
218
  6
CONTINUOUS
 62
     96
 10
-46.874604431690322
 20
-135.64053308033075
 11
-16.15460443169032
 21
-135.6405330803307
 40
 6.4000000000000012
 41
 0.8
  1
ボールバルブ
 50
 0.0000000000000495
 72
  5
  0
TEXT
  8
218
  6
CONTINUOUS
 62
     96
 10
-46.874604431690436
 20
-125.40687035488919
 11
-5.914604431690428
 21
-125.40687035488914
 40
 6.4000000000000012
 41
 0.8
  1
リクィッドエンド
 50
 0.0000000000000662
 72
  5
  0
TEXT
  8
218
  6
CONTINUOUS
 62
     96
 10
-46.874604431690663
 20
-94.682277363168353
 11
-5.9146044316906625
 21
-94.682277363168325
 40
 6.4000000000000012
 41
 0.8
  1
グランドフロアー
 50
 0.0000000000000495
 72
  5
  0
TEXT
  8
218
  6
CONTINUOUS
 62
     96
 10
-46.87460443169072
 20
-74.20283358603713
 11
-5.9146044316907194
 21
-74.202833586037102
 40
 6.4000000000000012
 41
 0.8
  1
グランドキャップ
 50
 0.0000000000000495
 72
  5
  0
TEXT
  8
218
  6
CONTINUOUS
 62
     96
 10
-46.874604431690038
 20
-145.87596277287886
 11
-16.154604431690036
 21
-145.87596277287881
 40
 6.4000000000000012
 41
 0.8
  1
バルブシート
 50
 0.0000000000000495
 72
  5
  0
TEXT
  8
218
  6
CONTINUOUS
 62
     96
 10
-46.874604431690265
 20
-166.35485433698759
 11
-11.034604896720026
 21
-166.35485433698753
 40
 6.4000000000000012
 41
 0.8
  1
ガスケット
 50
 0.0000000000000495
 72
  5
  0
TEXT
  8
218
  6
CONTINUOUS
 62
     96
 10
 28.422329526120915
 20
-166.36200148579132
 11
 48.902329526120923
 21
-166.3620014857913
 40
 6.4000000000000012
 41
 0.8
  1
テフロン
 50
 0.0000000000000495
 72
  5
  0
TEXT
  8
218
  6
CONTINUOUS
 62
     96
 10
-46.874604431690891
 20
-53.722281258446635
 11
-16.154604431690888
 21
-53.722281258446621
 40
 6.4000000000000012
 41
 0.8
  1
プランジャー
 50
 0.0000000000000495
 72
  5
  0
TEXT
  8
218
  6
CONTINUOUS
 62
     96
 10
-46.87460443169072
 20
-43.482265906466417
 11
-0.7946044316907148
 21
-43.482265906466388
 40
 6.4000000000000012
 41
 0.8
  1
クロスヘッドガイド
 50
 0.0000000000000495
 72
  5
  0
TEXT
  8
218
  6
CONTINUOUS
 62
     96
 10
-46.874604431690663
 20
-23.002810214364889
 11
-16.154604431690661
 21
-23.002810214364857
 40
 6.4000000000000012
 41
 0.8
  1
オイルシール
 50
 0.0000000000000495
 72
  5
  0
TEXT
  8
220
  6
CONTINUOUS
 62
     96
 10
-46.874604521608134
 20
-12.534860311862158
 11
-23.103175950179562
 21
-12.534860311862158
 40
 5.9428571428571431
 41
 0.8
  1
六角ボルト
 50
 0
 72
  5
  0
TEXT
  8
220
  6
CONTINUOUS
 62
     96
 10
-46.874604521608134
 20
-33.013717734999148
 11
-18.348890235893847
 21
-33.013717734999148
 40
 5.9428571428571431
 41
 0.8
  1
クロスヘッド
 50
 0
 72
  5
  0
TEXT
  8
218
  6
CONTINUOUS
 62
     96
 10
-46.874604431690436
 20
-186.83999610472156
 11
-16.154604431690434
 21
-186.83999610472151
 40
 6.4000000000000012
 41
 0.8
  1
出入口ノズル
 50
 0.0000000000000495
 72
  5
  0
TEXT
  8
218
  6
CONTINUOUS
 62
     96
 10
 146.78150052809082
 20
-186.83999610472142
 11
 167.26150052809083
 21
-186.83999610472137
 40
 6.4000000000000012
 41
 0.8
  1
Ｒ３／８
 50
 0.0000000000000495
 72
  5
  0
TEXT
  8
218
  6
CONTINUOUS
 62
     96
 10
 23.302329526120914
 20
-186.8408589089284
 11
 54.022329526120913
 21
-186.84085890892837
 40
 6.4000000000000012
 41
 0.8
  1
SUS304
 50
 0.0000000000000495
 72
  5
  0
TEXT
  8
218
  6
CONTINUOUS
 62
     96
 10
-46.874604431690436
 20
-115.16743413918111
 11
-11.034604431690433
 21
-115.16743413918107
 40
 6.4000000000000012
 41
 0.8
  1
ネックブッシュ
 50
 0.0000000000000662
 72
  5
  0
TEXT
  8
218
  6
CONTINUOUS
 62
     96
 10
-46.874604431690663
 20
-84.442852489594685
 11
-16.154604431690661
 21
-84.442852489594657
 40
 6.4000000000000012
 41
 0.8
  1
ロックナット
 50
 0.0000000000000495
 72
  5
  0
TEXT
  8
218
  6
CONTINUOUS
 62
     96
 10
-46.874604431690436
 20
-104.92800147505027
 11
-5.914604431690428
 21
-104.92800147505022
 40
 6.4000000000000012
 41
 0.8
  1
グランドパッキン
 50
 0.0000000000000662
 72
  5
  0
TEXT
  8
218
  6
CONTINUOUS
 62
     96
 10
 134.08790478036485
 20
-176.60056733586933
 11
 139.20790478036486
 21
-176.6005673358693
 40
 6.4000000000000012
 41
 0.8
  1
2
 50
 0.0000000000000495
 72
  5
  0
TEXT
  8
218
  6
CONTINUOUS
 62
     96
 10
 134.08790478036485
 20
-166.3611349008728
 11
 139.20790478036486
 21
-166.36113490087277
 40
 6.4000000000000012
 41
 0.8
  1
4
 50
 0.0000000000000495
 72
  5
  0
TEXT
  8
218
  6
CONTINUOUS
 62
     96
 10
 134.08790478036485
 20
-156.12170991273217
 11
 139.20790478036486
 21
-156.12170991273214
 40
 6.4000000000000012
 41
 0.8
  1
2
 50
 0.0000000000000495
 72
  5
  0
TEXT
  8
218
  6
CONTINUOUS
 62
     96
 10
 134.08790478036485
 20
-145.88228503915857
 11
 139.20790478036486
 21
-145.88228503915855
 40
 6.4000000000000012
 41
 0.8
  1
2
 50
 0.0000000000000495
 72
  5
  0
TEXT
  8
218
  6
CONTINUOUS
 62
     96
 10
-46.874604431690663
 20
-63.963995066457535
 11
-26.394604431690663
 21
-63.963995066457521
 40
 6.4000000000000012
 41
 0.8
  1
水切り板
 50
 0.0000000000000495
 72
  5
  0
LINE
  8
218
  6
CONTINUOUS
 62
     7
 10
-65.636240860789485
 20
-127.32400675229397
 11
 189.99999999999994
 21
-127.32400675229384
  0
LINE
  8
218
  6
CONTINUOUS
 62
     7
 10
-65.636240860789485
 20
-137.56343540657906
 11
 189.99999999999994
 21
-137.563435406579
  0
LINE
  8
218
  6
CONTINUOUS
 62
     7
 10
-65.636240860789485
 20
-147.80286028015257
 11
 189.99999999999994
 21
-147.80286028015223
  0
LINE
  8
218
  6
CONTINUOUS
 62
     7
 10
-65.636240860789485
 20
-158.04228526829311
 11
 189.99999999999994
 21
-158.04228526829291
  0
LINE
  8
218
  6
CONTINUOUS
 62
     7
 10
-65.636240860789485
 20
-168.2817177032897
 11
 189.99999999999994
 21
-168.28171770328942
  0
LINE
  8
218
  6
CONTINUOUS
 62
     7
 10
-65.636240860789485
 20
-178.52114647214174
 11
 189.99999999999994
 21
-178.52114647214154
  0
LINE
  8
218
  6
CONTINUOUS
 62
     7
 10
-65.636240860789485
 20
-45.40859229715862
 11
 189.99999999999994
 21
-45.40859229715835
  0
LINE
  8
218
  6
CONTINUOUS
 62
     7
 10
-65.636240860789485
 20
-55.648017170732032
 11
 189.99999999999994
 21
-55.648017170731961
  0
LINE
  8
218
  6
CONTINUOUS
 62
     7
 10
-65.636240860789485
 20
-65.887445939584239
 11
 189.99999999999994
 21
-65.887445939584211
  0
LINE
  8
218
  6
CONTINUOUS
 62
     7
 10
-65.636240860789485
 20
-76.12687459386926
 11
 189.99999999999994
 21
-76.126874593868976
  0
LINE
  8
218
  6
CONTINUOUS
 62
     7
 10
-65.636240860789485
 20
-86.366299467442786
 11
 189.99999999999994
 21
-86.366299467442758
  0
LINE
  8
218
  6
CONTINUOUS
 62
     7
 10
-65.636240860789485
 20
-96.605724455583527
 11
 189.99999999999994
 21
-96.605724455583101
  0
LINE
  8
218
  6
CONTINUOUS
 62
     7
 10
-65.636240860789485
 20
-106.84516067129155
 11
 189.99999999999994
 21
-106.8451606712913
  0
LINE
  8
218
  6
CONTINUOUS
 62
     7
 10
-65.636240860789485
 20
-117.08458176415347
 11
 189.99999999999994
 21
-117.08458176415321
  0
LINE
  8
218
  6
CONTINUOUS
 62
     7
 10
-65.636240860789485
 20
-24.929738654733043
 11
 189.99999999999994
 21
-24.929738654732773
  0
LINE
  8
218
  6
CONTINUOUS
 62
     7
 10
-65.636240860789485
 20
-35.169167423585137
 11
 189.99999999999994
 21
-35.169167423584838
  0
LINE
  8
218
  6
CONTINUOUS
 62
     7
 10
-65.636240860789485
 20
-14.690313781159546
 11
 189.99999999999994
 21
-14.690313781159306
  0
LINE
  8
218
  6
CONTINUOUS
 62
     7
 10
-65.636240860789485
 20
-4.4508851268745317
 11
 189.99999999999994
 21
-4.4508851268742902
  0
LINE
  8
218
  6
CONTINUOUS
 62
     7
 10
-65.636240860789485
 20
-188.76057134571519
 11
 189.99999999999994
 21
-188.76057134571499
  0
LINE
  8
218
  6
CONTINUOUS
 62
     7
 10
 189.99999999999994
 20
-199
 11
-65.636240860789485
 21
-199.00000000000026
  0
LINE
  8
218
  6
CONTINUOUS
 62
     7
 10
-65.636240860789485
 20
-199.00000000000014
 11
-65.636240860789485
 21
-4.4508851268745317
  0
LINE
  8
218
  6
CONTINUOUS
 62
     7
 10
-49.883273929484915
 20
-199.00000000000014
 11
-49.883273929484915
 21
-4.4508851268745175
  0
LINE
  8
218
  6
CONTINUOUS
 62
     7
 10
 20.490199725258435
 20
-199.00000000000003
 11
 20.490199725258435
 21
-4.4508851268744465
  0
LINE
  8
218
  6
CONTINUOUS
 62
     7
 10
 56.834459326983392
 20
-193.88028567285758
 11
 56.834459326983392
 21
-4.450885126874411
  0
LINE
  8
218
  6
CONTINUOUS
 62
     7
 10
 143.77283103029623
 20
-199.00000000000009
 11
 143.77283103029623
 21
-4.4508851268743364
  0
LINE
  8
218
  6
CONTINUOUS
 62
     7
 10
 189.99999999999994
 20
-199
 11
 189.99999999999994
 21
-4.4508851268742902
  0
TEXT
  8
218
  6
CONTINUOUS
 62
     96
 10
 134.08790478036485
 20
-104.92457786887449
 11
 139.20790478036486
 21
-104.92457786887449
 40
 6.4000000000000012
 41
 0.8
  1
6
 50
 0.0000000000000495
 72
  5
  0
TEXT
  8
218
  6
CONTINUOUS
 62
     96
 10
 134.08790478036485
 20
-125.403431396733
 11
 139.20790478036486
 21
-125.403431396733
 40
 6.4000000000000012
 41
 0.8
  1
1
 50
 0.0000000000000495
 72
  5
  0
TEXT
  8
218
  6
CONTINUOUS
 62
     96
 10
 134.08790478036485
 20
-115.16400640859233
 11
 139.20790478036486
 21
-115.16400640859233
 40
 6.4000000000000012
 41
 0.8
  1
1
 50
 0.0000000000000495
 72
  5
  0
TEXT
  8
218
  6
CONTINUOUS
 62
     96
 10
 134.08790478036485
 20
-135.64285248959496
 11
 139.20790478036486
 21
-135.64285248959493
 40
 6.4000000000000012
 41
 0.8
  1
2
 50
 0.0000000000000495
 72
  5
  0
TEXT
  8
218
  6
CONTINUOUS
 62
     96
 10
 25.862329526120913
 20
-156.1225727169392
 11
 51.462329526120925
 21
-156.12257271693917
 40
 6.4000000000000012
 41
 0.8
  1
SCS14
 50
 0.0000000000000495
 72
  5
  0
TEXT
  8
218
  6
CONTINUOUS
 62
     96
 10
 23.302329526120914
 20
-145.88314772879843
 11
 54.022329526120913
 21
-145.88314772879841
 40
 6.4000000000000012
 41
 0.8
  1
SUS304
 50
 0.0000000000000495
 72
  5
  0
TEXT
  8
218
  6
CONTINUOUS
 62
     96
 10
 23.302329526120914
 20
-135.64372285522501
 11
 54.022329526120913
 21
-135.64372285522498
 40
 6.4000000000000012
 41
 0.8
  1
SUS304
 50
 0.0000000000000495
 72
  5
  0
TEXT
  8
218
  6
CONTINUOUS
 62
     96
 10
 23.302329526120914
 20
-125.40429408637276
 11
 54.022329526120913
 21
-125.40429408637273
 40
 6.4000000000000012
 41
 0.8
  1
SUS304
 50
 0.0000000000000495
 72
  5
  0
TEXT
  8
218
  6
CONTINUOUS
 62
     96
 10
 23.302329526120914
 20
-115.16486921279935
 11
 54.022329526120913
 21
-115.16486921279932
 40
 6.4000000000000012
 41
 0.8
  1
SUS304
 50
 0.0000000000000495
 72
  5
  0
TEXT
  8
218
  6
CONTINUOUS
 62
     96
 10
 23.302329526120914
 20
-94.686019351085349
 11
 54.022329526120913
 21
-94.686019351085321
 40
 6.4000000000000012
 41
 0.8
  1
SUS304
 50
 0.0000000000000495
 72
  5
  0
TEXT
  8
218
  6
CONTINUOUS
 62
     96
 10
 25.862329526120913
 20
-84.446586916088535
 11
 51.462329526120925
 21
-84.446586916088506
 40
 6.4000000000000012
 41
 0.8
  1
SS400
 50
 0.0000000000000495
 72
  5
  0
TEXT
  8
218
  6
CONTINUOUS
 62
     96
 10
 23.302329526120914
 20
-74.207162042515122
 11
 54.022329526120913
 21
-74.207162042515094
 40
 6.4000000000000012
 41
 0.8
  1
SUS304
 50
 0.0000000000000495
 72
  5
  0
TEXT
  8
218
  6
CONTINUOUS
 62
     96
 10
 30.982329526120914
 20
-63.967737054374531
 11
 46.342329526120913
 21
-63.967737054374517
 40
 6.4000000000000012
 41
 0.8
  1
PVC
 50
 0.0000000000000495
 72
  5
  0
TEXT
  8
218
  6
CONTINUOUS
 62
     96
 10
 23.302329526120914
 20
-53.728312180801119
 11
 54.022329526120913
 21
-53.728312180801097
 40
 6.4000000000000012
 41
 0.8
  1
SUS304
 50
 0.0000000000000495
 72
  5
  0
TEXT
  8
218
  6
CONTINUOUS
 62
     96
 10
 28.422329526120915
 20
-43.488883411948855
 11
 48.902329526120923
 21
-43.488883411948848
 40
 6.4000000000000012
 41
 0.8
  1
AC4B
 50
 0.0000000000000495
 72
  5
  0
TEXT
  8
218
  6
CONTINUOUS
 62
     96
 10
 28.422329526120915
 20
-33.24945853837545
 11
 48.902329526120923
 21
-33.249458538375436
 40
 6.4000000000000012
 41
 0.8
  1
S45C
 50
 0.0000000000000495
 72
  5
  0
TEXT
  8
218
  6
CONTINUOUS
 62
     96
 10
 30.982329526120914
 20
-23.010033550234866
 11
 46.342329526120913
 21
-23.010033550234848
 40
 6.4000000000000012
 41
 0.8
  1
NBR
 50
 0.0000000000000495
 72
  5
  0
TEXT
  8
218
  6
CONTINUOUS
 62
     96
 10
 25.862329526120913
 20
-12.770608676661453
 11
 51.462329526120925
 21
-12.770608676661434
 40
 6.4000000000000012
 41
 0.8
  1
SS400
 50
 0.0000000000000495
 72
  5
  0
TEXT
  8
218
  6
CONTINUOUS
 62
     96
 10
 146.78150052809082
 20
-12.769734759453897
 11
 177.50150052809082
 21
-12.76973475945387
 40
 6.4000000000000012
 41
 0.8
  1
Ｍ８×３０
 50
 0.0000000000000495
 72
  5
  0
TEXT
  8
218
  6
CONTINUOUS
 62
     96
 10
 146.78150052809082
 20
-23.009159633027412
 11
 187.74150052809082
 21
-23.009159633027373
 40
 6.4000000000000012
 41
 0.8
  1
ＵＥ３０５０１１
 50
 0.0000000000000495
 72
  5
  0
TEXT
  8
218
  6
CONTINUOUS
 62
     96
 10
 146.78150052809082
 20
-135.64285627030637
 11
 167.26150052809083
 21
-135.64285627030631
 40
 6.4000000000000012
 41
 0.8
  1
３／８ｄ
 50
 0.0000000000000495
 72
  5
  0
LINE
  8
218
  6
CONTINUOUS
 62
     7
 10
 129.52297853043331
 20
-198.99999999999997
 11
 129.52297853043331
 21
-4.450885126874347
  0
TEXT
  8
218
  6
CONTINUOUS
 62
     96
 10
 59.646589127845878
 20
-186.8408589089284
 11
 90.36658912784587
 21
-186.84085890892837
 40
 6.4000000000000012
 41
 0.8
  1
SUS316
 50
 0.0000000000000495
 72
  5
  0
TEXT
  8
218
  6
CONTINUOUS
 62
     96
 10
 59.646589127845878
 20
-145.88314406265386
 11
 90.36658912784587
 21
-145.88314406265383
 40
 6.4000000000000012
 41
 0.8
  1
SUS316
 50
 0.0000000000000495
 72
  5
  0
TEXT
  8
218
  6
CONTINUOUS
 62
     96
 10
 59.646589127845878
 20
-135.64371907451334
 11
 90.36658912784587
 21
-135.64371907451331
 40
 6.4000000000000012
 41
 0.8
  1
SUS316
 50
 0.0000000000000495
 72
  5
  0
TEXT
  8
218
  6
CONTINUOUS
 62
     96
 10
 59.646589127845878
 20
-125.40429798165141
 11
 90.36658912784587
 21
-125.40429798165138
 40
 6.4000000000000012
 41
 0.8
  1
SUS316
 50
 0.0000000000000495
 72
  5
  0
TEXT
  8
218
  6
CONTINUOUS
 62
     96
 10
 59.646589127845878
 20
-115.1648617659433
 11
 90.36658912784587
 21
-115.16486176594327
 40
 6.4000000000000012
 41
 0.8
  1
SUS316
 50
 0.0000000000000495
 72
  5
  0
TEXT
  8
218
  6
CONTINUOUS
 62
     96
 10
 59.646589127845878
 20
-94.686011904229105
 11
 90.36658912784587
 21
-94.686011904229076
 40
 6.4000000000000012
 41
 0.8
  1
SUS316
 50
 0.0000000000000495
 72
  5
  0
TEXT
  8
218
  6
CONTINUOUS
 62
     96
 10
 59.646589127845878
 20
-74.207154481091976
 11
 90.36658912784587
 21
-74.207154481091948
 40
 6.4000000000000012
 41
 0.8
  1
SUS316
 50
 0.0000000000000495
 72
  5
  0
TEXT
  8
218
  6
CONTINUOUS
 62
     96
 10
 59.646589127845878
 20
-53.728304733944974
 11
 90.36658912784587
 21
-53.728304733944952
 40
 6.4000000000000012
 41
 0.8
  1
SUS316
 50
 0.0000000000000495
 72
  5
  0
TEXT
  8
218
  6
CONTINUOUS
 62
     96
 10
 134.08790478036485
 20
-186.83999610472142
 11
 139.20790478036486
 21
-186.83999610472139
 40
 6.4000000000000012
 41
 0.8
  1
2
 50
 0.0000000000000495
 72
  5
  0
LINE
  8
177
  6
CONTINUOUS
 62
     2
 10
 61.834459326983399
 20
-173.40143208771559
 11
 88.178718928708349
 21
-173.40143208771559
  0
LINE
  8
177
  6
CONTINUOUS
 62
     2
 10
 88.178718928708349
 20
-173.40143208771559
 11
 78.178718928708349
 21
-171.40143208771559
  0
LINE
  8
177
  6
CONTINUOUS
 62
     2
 10
 78.178718928708349
 20
-171.40143208771559
 11
 77.171893969739614
 21
-176.4355568825593
  0
LINE
  8
177
  6
CONTINUOUS
 62
     2
 10
 61.834459326983399
 20
-163.16199965271906
 11
 88.178718928708349
 21
-163.16199965271906
  0
LINE
  8
177
  6
CONTINUOUS
 62
     2
 10
 88.178718928708349
 20
-163.16199965271906
 11
 78.178718928708349
 21
-161.16199965271906
  0
LINE
  8
177
  6
CONTINUOUS
 62
     2
 10
 78.178718928708349
 20
-161.16199965271906
 11
 77.171893969739614
 21
-166.19612444756277
  0
LINE
  8
177
  6
CONTINUOUS
 62
     2
 10
 61.834459326983399
 20
-152.92257466457843
 11
 88.178718928708349
 21
-152.92257466457843
  0
LINE
  8
177
  6
CONTINUOUS
 62
     2
 10
 88.178718928708349
 20
-152.92257466457843
 11
 78.178718928708349
 21
-150.92257466457843
  0
LINE
  8
177
  6
CONTINUOUS
 62
     2
 10
 78.178718928708349
 20
-150.92257466457843
 11
 77.171893969739614
 21
-155.95669945942214
  0
LINE
  8
177
  6
CONTINUOUS
 62
     2
 10
 61.834459326983399
 20
-101.72543872544209
 11
 88.178718928708349
 21
-101.72543872544209
  0
LINE
  8
177
  6
CONTINUOUS
 62
     2
 10
 88.178718928708349
 20
-101.72543872544209
 11
 78.178718928708349
 21
-99.725438725442089
  0
LINE
  8
177
  6
CONTINUOUS
 62
     2
 10
 78.178718928708349
 20
-99.725438725442089
 11
 77.171893969739614
 21
-104.75956352028579
  0
LINE
  8
177
  6
CONTINUOUS
 62
     2
 10
 61.834459326983399
 20
-81.246585197583542
 11
 88.178718928708349
 21
-81.246585197583542
  0
LINE
  8
177
  6
CONTINUOUS
 62
     2
 10
 88.178718928708349
 20
-81.246585197583542
 11
 78.178718928708349
 21
-79.246585197583542
  0
LINE
  8
177
  6
CONTINUOUS
 62
     2
 10
 78.178718928708349
 20
-79.246585197583542
 11
 77.171893969739614
 21
-84.280709992427248
  0
LINE
  8
177
  6
CONTINUOUS
 62
     2
 10
 61.834459326983399
 20
-60.767731555157745
 11
 88.178718928708349
 21
-60.767731555157745
  0
LINE
  8
177
  6
CONTINUOUS
 62
     2
 10
 88.178718928708349
 20
-60.767731555157745
 11
 78.178718928708349
 21
-58.767731555157745
  0
LINE
  8
177
  6
CONTINUOUS
 62
     2
 10
 78.178718928708349
 20
-58.767731555157745
 11
 77.171893969739614
 21
-63.801856350001458
  0
LINE
  8
177
  6
CONTINUOUS
 62
     2
 10
 61.834459326983399
 20
-40.288877912732175
 11
 88.178718928708349
 21
-40.288877912732175
  0
LINE
  8
177
  6
CONTINUOUS
 62
     2
 10
 88.178718928708349
 20
-40.288877912732175
 11
 78.178718928708349
 21
-38.288877912732175
  0
LINE
  8
177
  6
CONTINUOUS
 62
     2
 10
 78.178718928708349
 20
-38.288877912732175
 11
 77.171893969739614
 21
-43.323002707575881
  0
LINE
  8
177
  6
CONTINUOUS
 62
     2
 10
 61.834459326983399
 20
-30.049453039158696
 11
 88.178718928708349
 21
-30.049453039158696
  0
LINE
  8
177
  6
CONTINUOUS
 62
     2
 10
 88.178718928708349
 20
-30.049453039158696
 11
 78.178718928708349
 21
-28.049453039158692
  0
LINE
  8
177
  6
CONTINUOUS
 62
     2
 10
 78.178718928708349
 20
-28.049453039158692
 11
 77.171893969739614
 21
-33.083577834002398
  0
LINE
  8
177
  6
CONTINUOUS
 62
     2
 10
 61.834459326983399
 20
-19.810024384873685
 11
 88.178718928708349
 21
-19.810024384873685
  0
LINE
  8
177
  6
CONTINUOUS
 62
     2
 10
 88.178718928708349
 20
-19.810024384873685
 11
 78.178718928708349
 21
-17.810024384873685
  0
LINE
  8
177
  6
CONTINUOUS
 62
     2
 10
 78.178718928708349
 20
-17.810024384873685
 11
 77.171893969739614
 21
-22.844149179717391
  0
LINE
  8
177
  6
CONTINUOUS
 62
     2
 10
 61.834459326983399
 20
-9.5705995113002018
 11
 88.178718928708349
 21
-9.5705995113002018
  0
LINE
  8
177
  6
CONTINUOUS
 62
     2
 10
 88.178718928708349
 20
-9.5705995113002018
 11
 78.178718928708349
 21
-7.5705995113002018
  0
LINE
  8
177
  6
CONTINUOUS
 62
     2
 10
 78.178718928708349
 20
-7.5705995113002018
 11
 77.171893969739614
 21
-12.604724306143908
  0
TEXT
  8
218
  6
CONTINUOUS
 62
     96
 10
 161.23308251514808
 20
-197.08028567285754
 11
 172.53974851514809
 21
-197.08028567285751
 40
 6.4000000000000004
 41
 0.8
  1
備考
 50
 0
 72
  5
  0
TEXT
  8
218
  6
CONTINUOUS
 62
     96
 10
 34.662329526120921
 20
-193.82042759275026
 11
 42.662329526120914
 21
-193.82042759275026
 40
 5
 41
 0.8
  1
Ｓ４
 50
 0.0000000000000495
 72
  5
  0
TEXT
  8
218
  6
CONTINUOUS
 62
     96
 10
 71.006589127845871
 20
-193.82042759275024
 11
 79.006589127845871
 21
-193.82042759275024
 40
 5
 41
 0.8
  1
Ｓ６
 50
 0.0000000000000495
 72
  5
  0
LINE
  8
218
  6
CONTINUOUS
 62
     7
 10
 20.490199725258435
 20
-193.88028567285758
 11
 129.52297853043331
 21
-193.88028567285755
  0
LINE
  8
0
  6
CONTINUOUS
 62
     4
 10
 83.15657413967358
 20
 187.62275516727834
 11
 99.629494172659705
 21
 189.89834110749641
  0
LINE
  8
0
  6
CONTINUOUS
 62
     4
 10
 83.156574139673495
 20
 92.622687167278457
 11
 114.57421190683463
 21
 81.713835394202704
  0
ARC
  8
0
  6
CONTINUOUS
 62
     7
 10
 118.38788443036258
 20
 178.70852120174848
 40
 21.842373373407792
 50
 149.18293459881198
 51
-133.45269531545327
  0
ARC
  8
0
  6
CONTINUOUS
 62
     7
 10
 88.343462782044298
 20
 146.99590815659749
 40
 21.842373373407792
 50
-30.817068471657056
 51
 46.547307755015744
  0
ARC
  8
0
  6
CONTINUOUS
 62
     7
 10
 125.86024329745001
 20
 124.61626834510164
 40
 21.842373373407792
 50
 149.18293459881198
 51
-133.45269531545327
  0
ARC
  8
0
  6
CONTINUOUS
 62
     7
 10
 95.815821649131749
 20
 92.903655299950657
 40
 21.842373373407792
 50
-30.817068471657056
 51
 46.547307755015744
  0
ARC
  8
0
  6
CONTINUOUS
 62
     3
 10
 106.15657413967349
 20
 113.12268716727846
 40
 3
 50
 97.814117490154501
 51
-37.302222063454934
  0
TEXT
  8
0
  6
CONTINUOUS
 62
     3
 10
-64.350000041723249
 20
-269.5
 11
-33.150000041723239
 21
-269.5
 40
 7
 41
 0.8
  1
山田
 50
 0
 72
  5
  0
TEXT
  8
218
  6
CONTINUOUS
 62
     96
 10
 134.08790478036485
 20
-94.685149100022471
 11
 139.20790478036486
 21
-94.685149100022471
 40
 6.4000000000000012
 41
 0.8
  1
1
 50
 0.0000000000000495
 72
  5
  0
TEXT
  8
218
  6
CONTINUOUS
 62
     96
 10
 134.08790478036485
 20
-84.445724111881802
 11
 139.20790478036486
 21
-84.445724111881802
 40
 6.4000000000000012
 41
 0.8
  1
1
 50
 0.0000000000000495
 72
  5
  0
TEXT
  8
218
  6
CONTINUOUS
 62
     96
 10
 134.08790478036485
 20
-74.206295572163924
 11
 139.20790478036486
 21
-74.206295572163924
 40
 6.4000000000000012
 41
 0.8
  1
1
 50
 0.0000000000000495
 72
  5
  0
TEXT
  8
218
  6
CONTINUOUS
 62
     96
 10
 134.08790478036485
 20
-63.966870584023248
 11
 139.20790478036486
 21
-63.966870584023255
 40
 6.4000000000000012
 41
 0.8
  1
1
 50
 0.0000000000000495
 72
  5
  0
TEXT
  8
218
  6
CONTINUOUS
 62
     96
 10
 134.08790478036485
 20
-53.727441929738113
 11
 139.20790478036486
 21
-53.72744192973812
 40
 6.4000000000000012
 41
 0.8
  1
1
 50
 0.0000000000000495
 72
  5
  0
TEXT
  8
218
  6
CONTINUOUS
 62
     96
 10
 134.08790478036485
 20
-43.488016941597444
 11
 139.20790478036486
 21
-43.488016941597451
 40
 6.4000000000000012
 41
 0.8
  1
1
 50
 0.0000000000000495
 72
  5
  0
TEXT
  8
218
  6
CONTINUOUS
 62
     96
 10
 134.08790478036485
 20
-33.248588287312543
 11
 139.20790478036486
 21
-33.248588287312543
 40
 6.4000000000000012
 41
 0.8
  1
1
 50
 0.0000000000000495
 72
  5
  0
TEXT
  8
218
  6
CONTINUOUS
 62
     96
 10
 134.08790478036485
 20
-23.009163299171878
 11
 139.20790478036486
 21
-23.009163299171867
 40
 6.4000000000000012
 41
 0.8
  1
1
 50
 0.0000000000000495
 72
  5
  0
TEXT
  8
218
  6
CONTINUOUS
 62
     96
 10
 134.08790478036485
 20
-12.769738425598408
 11
 139.20790478036486
 21
-12.769738425598405
 40
 6.4000000000000012
 41
 0.8
  1
1
 50
 0.0000000000000495
 72
  5
  0
LINE
  8
0
  6
CONTINUOUS
 62
     4
 10
-86.343413860326535
 20
 93.122712167278507
 11
-98.343407860326806
 21
 93.122712167278507
  0
LINE
  8
0
  6
CONTINUOUS
 62
     4
 10
-98.343407860326806
 20
 93.122712167278507
 11
-98.343407860326806
 21
 110.12271216727851
  0
LINE
  8
0
  6
CONTINUOUS
 62
     4
 10
-98.343407860326806
 20
 110.12271216727851
 11
-89.843407860326778
 21
 110.12271216727851
  0
LINE
  8
0
  6
CONTINUOUS
 62
     4
 10
-57.343407860326806
 20
 110.12271216727851
 11
-65.843407860326778
 21
 110.12271216727851
  0
LINE
  8
0
  6
CONTINUOUS
 62
     4
 10
-57.343407860326806
 20
 93.122712167278507
 11
-57.343407860326806
 21
 110.12271216727851
  0
LINE
  8
0
  6
CONTINUOUS
 62
     4
 10
-57.343407860326806
 20
 93.122712167278507
 11
-69.34340186032702
 21
 93.122712167278507
  0
LINE
  8
0
  6
CONTINUOUS
 62
     4
 10
-89.843407860326778
 20
 98.122712167278507
 11
-86.343413860326535
 21
 98.122712167278507
  0
LINE
  8
0
  6
CONTINUOUS
 62
     4
 10
-69.34340186032702
 20
 98.122712167278507
 11
-65.843407860326778
 21
 98.122712167278507
  0
ARC
  8
0
  6
CONTINUOUS
 62
     4
 10
-77.843407860326778
 20
 112.352480928351
 40
 4.7625000000000002
 50
-130.12673634204916
 51
-137.29945667050694
  0
LINE
  8
0
  6
CONTINUOUS
 62
     4
 10
-73.843407860326778
 20
 124.12271216727852
 11
-73.843407860326778
 21
 129.12272116727837
  0
LINE
  8
0
  6
CONTINUOUS
 62
     4
 10
-69.843407860326806
 20
 109.12271216727852
 11
-74.343407860326835
 21
 109.12271216727852
  0
LINE
  8
0
  6
CONTINUOUS
 62
     4
 10
-81.343407860326835
 20
 109.12271216727854
 11
-85.740360301266207
 21
 109.12271216727852
  0
LINE
  8
0
  6
CONTINUOUS
 62
     4
 10
-69.843407860326806
 20
 161.12273016727829
 11
-74.343407860326835
 21
 161.12273016727829
  0
LINE
  8
0
  6
CONTINUOUS
 62
     4
 10
-81.343407860326835
 20
 161.12273016727841
 11
-85.740360301266207
 21
 161.12273016727829
  0
LINE
  8
0
  6
CONTINUOUS
 62
     4
 10
 88.15657413967358
 20
 175.62275516727834
 11
 96.629645780013888
 21
 176.79323390793934
  0
LINE
  8
0
  6
CONTINUOUS
 62
     4
 10
 88.156574139673495
 20
 104.62268716727846
 11
 117.60709554486451
 21
 94.396858763819438
  0
LINE
  8
0
  6
CONTINUOUS
 62
     3
 10
 71.156574139673495
 20
 160.1227211672784
 11
 79.156574139673495
 21
 160.1227211672784
  0
LINE
  8
0
  6
CONTINUOUS
 62
     3
 10
 79.156574139673495
 20
 160.1227211672784
 11
 79.156574139673495
 21
 150.1227211672784
  0
LINE
  8
0
  6
CONTINUOUS
 62
     3
 10
 73.156574139673495
 20
 152.1227211672784
 11
 73.156574139673495
 21
 158.1227211672784
  0
LINE
  8
0
  6
CONTINUOUS
 62
     3
 10
 73.156574139673495
 20
 158.1227211672784
 11
 77.156574139673495
 21
 158.12272116727837
  0
LINE
  8
0
  6
CONTINUOUS
 62
     3
 10
 73.156574139673495
 20
 150.1227211672784
 11
 75.047173747223042
 21
 151.38312090564474
  0
LINE
  8
0
  6
CONTINUOUS
 62
     3
 10
 77.265974532123948
 20
 151.38312090564477
 11
 79.156574139673495
 21
 150.1227211672784
  0
ARC
  8
0
  6
CONTINUOUS
 62
     3
 10
 76.156574139673495
 20
 149.71902031696908
 40
 2
 50
 56.30993343456435
 51
 123.69006963590513
  0
LINE
  8
0
  6
CONTINUOUS
 62
     3
 10
 77.265974532123948
 20
 153.38312090564477
 11
 79.156574139673495
 21
 152.1227211672784
  0
ARC
  8
0
  6
CONTINUOUS
 62
     3
 10
 76.156574139673495
 20
 151.71902031696908
 40
 2
 50
 56.30993343456435
 51
 123.69006963590513
  0
LINE
  8
0
  6
CONTINUOUS
 62
     3
 10
 73.156574139673495
 20
 152.1227211672784
 11
 75.047173747223042
 21
 153.38312090564474
  0
LINE
  8
0
  6
CONTINUOUS
 62
     3
 10
 77.156574139673495
 20
 158.12272116727837
 11
 77.156574139673495
 21
 156.34364383770387
  0
LINE
  8
0
  6
CONTINUOUS
 62
     3
 10
 77.156574139673495
 20
 156.34364383770387
 11
 79.156574139673495
 21
 156.34364383770387
  0
CIRCLE
  8
0
  6
CONTINUOUS
 62
     3
 10
 75.033043508804212
 20
 155.84484035454423
 40
 1.8764693691307337
  0
LINE
  8
0
  6
CONTINUOUS
 62
     3
 10
 71.156574139673495
 20
 120.12272116727839
 11
 79.156574139673495
 21
 120.12272116727839
  0
LINE
  8
0
  6
CONTINUOUS
 62
     3
 10
 79.156574139673495
 20
 120.12272116727839
 11
 79.156574139673495
 21
 130.1227211672784
  0
LINE
  8
0
  6
CONTINUOUS
 62
     3
 10
 73.156574139673495
 20
 128.1227211672784
 11
 73.156574139673495
 21
 122.12272116727839
  0
LINE
  8
0
  6
CONTINUOUS
 62
     3
 10
 73.156574139673495
 20
 122.12272116727839
 11
 77.156574139673495
 21
 122.12272116727844
  0
LINE
  8
0
  6
CONTINUOUS
 62
     3
 10
 73.156574139673495
 20
 130.1227211672784
 11
 75.047173747223042
 21
 128.86232142891205
  0
LINE
  8
0
  6
CONTINUOUS
 62
     3
 10
 77.265974532123948
 20
 128.86232142891203
 11
 79.156574139673495
 21
 130.1227211672784
  0
ARC
  8
0
  6
CONTINUOUS
 62
     3
 10
 76.156574139673495
 20
 130.52642201758772
 40
 2
 50
-123.69006963590513
 51
-56.30993343456435
  0
LINE
  8
0
  6
CONTINUOUS
 62
     3
 10
 77.265974532123948
 20
 126.86232142891203
 11
 79.156574139673495
 21
 128.1227211672784
  0
ARC
  8
0
  6
CONTINUOUS
 62
     3
 10
 76.156574139673495
 20
 128.52642201758772
 40
 2
 50
-123.69006963590513
 51
-56.30993343456435
  0
LINE
  8
0
  6
CONTINUOUS
 62
     3
 10
 73.156574139673495
 20
 128.1227211672784
 11
 75.047173747223042
 21
 126.86232142891205
  0
LINE
  8
0
  6
CONTINUOUS
 62
     3
 10
 77.156574139673495
 20
 122.12272116727844
 11
 77.156574139673495
 21
 123.90179849685295
  0
LINE
  8
0
  6
CONTINUOUS
 62
     3
 10
 77.156574139673495
 20
 123.90179849685295
 11
 79.156574139673495
 21
 123.90179849685295
  0
CIRCLE
  8
0
  6
CONTINUOUS
 62
     3
 10
 75.033043508804212
 20
 124.40060198001257
 40
 1.8764693691307337
  0
POINT
  8
0
  6
CONTINUOUS
 62
     3
 10
-99.843407860326835
 20
 140.12272116727846
  0
INSERT
  8
0
  2
CADWIN-G0
 10
0.0
 20
0.0
  0
INSERT
  8
0
  2
CADWIN-G1
 10
0.0
 20
0.0
  0
INSERT
  8
0
  2
CADWIN-G2
 10
0.0
 20
0.0
  0
INSERT
  8
0
  2
CADWIN-G3
 10
0.0
 20
0.0
  0
INSERT
  8
0
  2
CADWIN-G4
 10
0.0
 20
0.0
  0
INSERT
  8
0
  2
CADWIN-G5
 10
0.0
 20
0.0
  0
INSERT
  8
0
  2
CADWIN-G6
 10
0.0
 20
0.0
  0
INSERT
  8
0
  2
CADWIN-G7
 10
0.0
 20
0.0
  0
INSERT
  8
0
  2
CADWIN-G8
 10
0.0
 20
0.0
  0
INSERT
  8
0
  2
CADWIN-G9
 10
0.0
 20
0.0
  0
INSERT
  8
0
  2
CADWIN-G10
 10
0.0
 20
0.0
  0
INSERT
  8
0
  2
CADWIN-G11
 10
0.0
 20
0.0
  0
INSERT
  8
0
  2
CADWIN-G12
 10
0.0
 20
0.0
  0
INSERT
  8
0
  2
CADWIN-G13
 10
0.0
 20
0.0
  0
INSERT
  8
0
  2
CADWIN-G14
 10
0.0
 20
0.0
  0
INSERT
  8
0
  2
CADWIN-G15
 10
0.0
 20
0.0
  0
INSERT
  8
0
  2
CADWIN-G16
 10
0.0
 20
0.0
  0
INSERT
  8
0
  2
CADWIN-G17
 10
0.0
 20
0.0
  0
INSERT
  8
0
  2
CADWIN-G18
 10
0.0
 20
0.0
  0
INSERT
  8
0
  2
CADWIN-G19
 10
0.0
 20
0.0
  0
INSERT
  8
0
  2
CADWIN-G20
 10
0.0
 20
0.0
  0
INSERT
  8
0
  2
CADWIN-G21
 10
0.0
 20
0.0
  0
INSERT
  8
0
  2
CADWIN-G22
 10
0.0
 20
0.0
  0
INSERT
  8
0
  2
CADWIN-G23
 10
0.0
 20
0.0
  0
INSERT
  8
0
  2
CADWIN-G24
 10
0.0
 20
0.0
  0
INSERT
  8
0
  2
CADWIN-G25
 10
0.0
 20
0.0
  0
TEXT
  8
218
  6
CONTINUOUS
 62
     96
 10
 23.302329526120914
 20
-176.60143014007636
 11
 54.022329526120913
 21
-176.60143014007633
 40
 6.4000000000000012
 41
 0.8
  1
SUS304
 50
 0.0000000000000495
 72
  5
  0
TEXT
  8
218
  6
CONTINUOUS
 62
     96
 10
 71.006589127845871
 20
-198.94014283642878
 11
 79.006589127845871
 21
-198.94014283642878
 40
 5
 41
 0.8
  1
材質
 50
 0.0000000000000495
 72
  5
  0
TEXT
  8
218
  6
CONTINUOUS
 62
     96
 10
 107.35084872957083
 20
-193.82042759275024
 11
 115.35084872957081
 21
-193.82042759275024
 40
 5
 41
 0.8
  1
Ｔｉ
 50
 0.0000000000000495
 72
  5
  0
TEXT
  8
218
  6
CONTINUOUS
 62
     96
 10
 103.67084872957082
 20
-186.8408589089284
 11
 119.03084872957083
 21
-186.84085890892837
 40
 6.4000000000000012
 41
 0.8
  1
チタン
 50
 0.0000000000000495
 72
  5
  0
TEXT
  8
218
  6
CONTINUOUS
 62
     96
 10
 95.990848729570828
 20
-135.64371907451331
 11
 126.71084872957081
 21
-135.64371907451329
 40
 6.4000000000000012
 41
 0.8
  1
ハステロイＣ
 50
 0.0000000000000495
 72
  5
  0
LINE
  8
177
  6
CONTINUOUS
 62
     2
 10
 98.178718928708349
 20
-173.40143208771556
 11
 124.52297853043331
 21
-173.40143208771556
  0
LINE
  8
177
  6
CONTINUOUS
 62
     2
 10
 124.52297853043331
 20
-173.40143208771556
 11
 114.52297853043331
 21
-171.40143208771556
  0
LINE
  8
177
  6
CONTINUOUS
 62
     2
 10
 114.52297853043331
 20
-171.40143208771556
 11
 113.51615357146457
 21
-176.43555688255927
  0
LINE
  8
177
  6
CONTINUOUS
 62
     2
 10
 98.178718928708349
 20
-163.16199965271906
 11
 124.52297853043331
 21
-163.16199965271906
  0
LINE
  8
177
  6
CONTINUOUS
 62
     2
 10
 124.52297853043331
 20
-163.16199965271906
 11
 114.52297853043331
 21
-161.16199965271906
  0
LINE
  8
177
  6
CONTINUOUS
 62
     2
 10
 114.52297853043331
 20
-161.16199965271906
 11
 113.51615357146457
 21
-166.19612444756277
  0
TEXT
  8
218
  6
CONTINUOUS
 62
     96
 10
 103.67084872957082
 20
-145.8831516240771
 11
 119.03084872957083
 21
-145.88315162407707
 40
 6.4000000000000012
 41
 0.8
  1
チタン
 50
 0.0000000000000495
 72
  5
  0
TEXT
  8
218
  6
CONTINUOUS
 62
     96
 10
 103.67084872957082
 20
-156.12257649765041
 11
 119.03084872957083
 21
-156.12257649765039
 40
 6.4000000000000012
 41
 0.8
  1
チタン
 50
 0.0000000000000495
 72
  5
  0
TEXT
  8
218
  6
CONTINUOUS
 62
     96
 10
 103.67084872957082
 20
-125.40429798165138
 11
 119.03084872957083
 21
-125.40429798165138
 40
 6.4000000000000012
 41
 0.8
  1
チタン
 50
 0.0000000000000495
 72
  5
  0
TEXT
  8
218
  6
CONTINUOUS
 62
     96
 10
 103.67084872957082
 20
-115.16486176594327
 11
 119.03084872957083
 21
-115.16486176594327
 40
 6.4000000000000012
 41
 0.8
  1
チタン
 50
 0.0000000000000495
 72
  5
  0
TEXT
  8
218
  6
CONTINUOUS
 62
     96
 10
 103.67084872957082
 20
-94.686011904229076
 11
 119.03084872957083
 21
-94.686011904229076
 40
 6.4000000000000012
 41
 0.8
  1
チタン
 50
 0.0000000000000495
 72
  5
  0
TEXT
  8
218
  6
CONTINUOUS
 62
     96
 10
 103.67084872957082
 20
-74.207154481091948
 11
 119.03084872957083
 21
-74.207154481091948
 40
 6.4000000000000012
 41
 0.8
  1
チタン
 50
 0.0000000000000495
 72
  5
  0
LINE
  8
177
  6
CONTINUOUS
 62
     2
 10
 98.178718928708349
 20
-101.72543872544207
 11
 124.52297853043331
 21
-101.72543872544207
  0
LINE
  8
177
  6
CONTINUOUS
 62
     2
 10
 124.52297853043331
 20
-101.72543872544207
 11
 114.52297853043331
 21
-99.725438725442075
  0
LINE
  8
177
  6
CONTINUOUS
 62
     2
 10
 114.52297853043331
 20
-99.725438725442075
 11
 113.51615357146457
 21
-104.75956352028578
  0
LINE
  8
177
  6
CONTINUOUS
 62
     2
 10
 98.178718928708349
 20
-81.246585197583528
 11
 124.52297853043331
 21
-81.246585197583528
  0
LINE
  8
177
  6
CONTINUOUS
 62
     2
 10
 124.52297853043331
 20
-81.246585197583528
 11
 114.52297853043331
 21
-79.246585197583528
  0
LINE
  8
177
  6
CONTINUOUS
 62
     2
 10
 114.52297853043331
 20
-79.246585197583528
 11
 113.51615357146457
 21
-84.280709992427234
  0
LINE
  8
177
  6
CONTINUOUS
 62
     2
 10
 98.178718928708349
 20
-60.767731555157738
 11
 124.52297853043331
 21
-60.767731555157738
  0
LINE
  8
177
  6
CONTINUOUS
 62
     2
 10
 124.52297853043331
 20
-60.767731555157738
 11
 114.52297853043331
 21
-58.767731555157738
  0
LINE
  8
177
  6
CONTINUOUS
 62
     2
 10
 114.52297853043331
 20
-58.767731555157738
 11
 113.51615357146457
 21
-63.801856350001444
  0
LINE
  8
177
  6
CONTINUOUS
 62
     2
 10
 98.178718928708349
 20
-40.288877912732161
 11
 124.52297853043331
 21
-40.288877912732161
  0
LINE
  8
177
  6
CONTINUOUS
 62
     2
 10
 124.52297853043331
 20
-40.288877912732161
 11
 114.52297853043331
 21
-38.288877912732161
  0
LINE
  8
177
  6
CONTINUOUS
 62
     2
 10
 114.52297853043331
 20
-38.288877912732161
 11
 113.51615357146457
 21
-43.323002707575867
  0
LINE
  8
177
  6
CONTINUOUS
 62
     2
 10
 98.178718928708349
 20
-30.049453039158674
 11
 124.52297853043331
 21
-30.049453039158674
  0
LINE
  8
177
  6
CONTINUOUS
 62
     2
 10
 124.52297853043331
 20
-30.049453039158674
 11
 114.52297853043331
 21
-28.049453039158678
  0
LINE
  8
177
  6
CONTINUOUS
 62
     2
 10
 114.52297853043331
 20
-28.049453039158678
 11
 113.51615357146457
 21
-33.083577834002384
  0
LINE
  8
177
  6
CONTINUOUS
 62
     2
 10
 98.178718928708349
 20
-19.810024384873671
 11
 124.52297853043331
 21
-19.810024384873671
  0
LINE
  8
177
  6
CONTINUOUS
 62
     2
 10
 124.52297853043331
 20
-19.810024384873671
 11
 114.52297853043331
 21
-17.810024384873671
  0
LINE
  8
177
  6
CONTINUOUS
 62
     2
 10
 114.52297853043331
 20
-17.810024384873671
 11
 113.51615357146457
 21
-22.844149179717377
  0
LINE
  8
177
  6
CONTINUOUS
 62
     2
 10
 98.178718928708349
 20
-9.5705995113001876
 11
 124.52297853043331
 21
-9.5705995113001876
  0
LINE
  8
177
  6
CONTINUOUS
 62
     2
 10
 124.52297853043331
 20
-9.5705995113001876
 11
 114.52297853043331
 21
-7.5705995113001876
  0
LINE
  8
177
  6
CONTINUOUS
 62
     2
 10
 114.52297853043331
 20
-7.5705995113001876
 11
 113.51615357146457
 21
-12.604724306143893
  0
TEXT
  8
218
  6
CONTINUOUS
 62
     96
 10
 95.990848729570828
 20
-53.72830473394496
 11
 126.71084872957081
 21
-53.728304733944938
 40
 6.4000000000000012
 41
 0.8
  1
ハステロイＣ
 50
 0.0000000000000495
 72
  5
  0
LINE
  8
218
  6
CONTINUOUS
 62
     7
 10
 93.178718928708349
 20
-193.88028567285755
 11
 93.178718928708349
 21
-4.4508851268743754
  0
TEXT
  8
218
  6
CONTINUOUS
 62
     96
 10
 144.29576669999116
 20
-156.12257277422262
 11
 190.37576669999117
 21
-156.12257277422259
 40
 6.4000000000000004
 41
 0.6
  1
チタンの時はリフトピース
 50
 0
 72
  5
  0
LINE
  8
0
  6
CONTINUOUS
 62
     7
 10
-85.343413860326535
 20
 230.12272116727854
 11
-85.343413860326535
 21
 215.12272116727854
  0
LINE
  8
0
  6
CONTINUOUS
 62
     7
 10
-85.343413860326535
 20
 215.12272116727854
 11
-86.343413860326535
 21
 215.12272116727854
  0
LINE
  8
0
  6
CONTINUOUS
 62
     7
 10
-70.34340186032702
 20
 230.12272116727854
 11
-70.34340186032702
 21
 215.12272116727854
  0
LINE
  8
0
  6
CONTINUOUS
 62
     7
 10
-70.34340186032702
 20
 215.12272116727854
 11
-69.34340186032702
 21
 215.12272116727854
  0
LINE
  8
0
  6
CONTINUOUS
 62
     7
 10
-85.343413860326535
 20
 65.122721167278257
 11
-86.343413860326535
 21
 65.122721167278257
  0
LINE
  8
0
  6
CONTINUOUS
 62
     7
 10
-70.34340186032702
 20
 65.122721167278257
 11
-69.34340186032702
 21
 65.122721167278257
  0
LINE
  8
0
  6
CONTINUOUS
 62
     7
 10
-70.34340186032702
 20
 50.122721167278257
 11
-70.34340186032702
 21
 65.122721167278257
  0
LINE
  8
0
  6
CONTINUOUS
 62
     7
 10
-85.343413860326535
 20
 50.122721167278257
 11
-85.343413860326535
 21
 65.122721167278257
  0
TEXT
  8
218
  6
CONTINUOUS
 62
     96
 10
 20.742329526120916
 20
-104.92544433922596
 11
 56.582329526120915
 21
-104.92544433922593
 40
 6.4000000000000012
 41
 0.8
  1
T/#9038
 50
 0.0000000000000495
 72
  5
  0
ENDSEC
  0
EOF
