  0
SECTION
  2
HEADER
  9
$INSBASE
 10
0.0
20
0.0
  9
$REGENMODE
 70
     1
  9
$DRAGMODE
 70
     1
  9
$DIMTAD
 70
     1
  9
$EXTMIN
 10
-630.000000
 20
-891.000000
 30
 0.0
  9
$EXTMAX
 10
630.000000
 20
891.000000
 30
 0.0
  9
$LUPREC
 70
    3
  9
$AUPREC
 70
    3
  9
$LTSCALE
 40
13.125000
  0
ENDSEC
  0
SECTION
  2
TABLES
  0
TABLE
  2
LTYPE
 70
     6
  0
LTYPE
  2
CONTINUOUS
 70
    64
  3
8;
 72
    65
 73
     0
 40
0.0
  0
LTYPE
  2
DASHED2
 70
    64
  3
_ _ _ _ _ _ _ _ _ _ _ _ _ _ _ _ _ _ _ _ _ _ 
 72
    65
 73
     2
 40
0.5
 49
0.25
 49
-0.25
  0
LTYPE
  2
DASHED
 70
    64
  3
__ __ __ __ __ __ __ __ __ __ __ __ __ __ __
 72
    65
 73
     2
 40
0.75
 49
0.5
 49
-0.25
  0
LTYPE
  2
DASHEDX2
 70
    64
  3
____  ____  ____  ____  ____  ____  ____  __
 72
    65
 73
     2
 40
1.5
 49
1.0
 49
-0.5
  0
LTYPE
  2
HIDDENX2
 70
    64
  3
____ ____ ____ ____ ____ ____ ____ ____ ____
 72
    65
 73
     2
 40
0.625
 49
0.5
 49
-0.125
  0
LTYPE
  2
CENTER
 70
    64
  3
____ _ ____ _ ____ _ ____ _ ____ _ ____ _ __
 72
    65
 73
     4
 40
2.0
 49
1.25
 49
-0.25
 49
0.25
 49
-0.25
  0
LTYPE
  2
CENTERX2
 70
    64
  3
________  __  ________  __  ________  __  __
 72
    65
 73
     4
 40
4.0
 49
2.5
 49
-0.5
 49
0.5
 49
-0.5
  0
LTYPE
  2
PHANTOM2
 70
    64
  3
___ _ _ ___ _ _ ___ _ _ ___ _ _ ___ _ _ ___ 
 72
    65
 73
     6
 40
1.25
 49
0.625
 49
-0.125
 49
0.125
 49
-0.125
 49
0.125
 49
-0.125
  0
LTYPE
  2
PHANTOM
 70
    64
  3
_____ _ _ _____ _ _ _____ _ _ _____ _ _ ____
 72
    65
 73
     6
 40
2.5
 49
1.25
 49
-0.25
 49
0.25
 49
-0.25
 49
0.25
 49
-0.25
  0
ENDTAB
  0
TABLE
  2
LAYER
 70
   255
  0
LAYER
  2
0
 70
    64
 62
     7
  6
CONTINUOUS
  0
LAYER
  2
1
 70
    64
 62
     7
  6
CONTINUOUS
  0
LAYER
  2
2
 70
    64
 62
     7
  6
CONTINUOUS
  0
LAYER
  2
3
 70
    64
 62
     7
  6
CONTINUOUS
  0
LAYER
  2
4
 70
    64
 62
     7
  6
CONTINUOUS
  0
LAYER
  2
5
 70
    64
 62
     7
  6
CONTINUOUS
  0
LAYER
  2
6
 70
    64
 62
     7
  6
CONTINUOUS
  0
LAYER
  2
7
 70
    64
 62
     7
  6
CONTINUOUS
  0
LAYER
  2
8
 70
    64
 62
     7
  6
CONTINUOUS
  0
LAYER
  2
9
 70
    64
 62
     7
  6
CONTINUOUS
  0
LAYER
  2
10
 70
    64
 62
     7
  6
CONTINUOUS
  0
LAYER
  2
11
 70
    64
 62
     7
  6
CONTINUOUS
  0
LAYER
  2
12
 70
    64
 62
     7
  6
CONTINUOUS
  0
LAYER
  2
13
 70
    64
 62
     7
  6
CONTINUOUS
  0
LAYER
  2
14
 70
    64
 62
     7
  6
CONTINUOUS
  0
LAYER
  2
15
 70
    64
 62
     7
  6
CONTINUOUS
  0
LAYER
  2
16
 70
    64
 62
     7
  6
CONTINUOUS
  0
LAYER
  2
17
 70
    64
 62
     7
  6
CONTINUOUS
  0
LAYER
  2
18
 70
    64
 62
     7
  6
CONTINUOUS
  0
LAYER
  2
19
 70
    64
 62
     7
  6
CONTINUOUS
  0
LAYER
  2
20
 70
    64
 62
     7
  6
CONTINUOUS
  0
LAYER
  2
21
 70
    64
 62
     7
  6
CONTINUOUS
  0
LAYER
  2
22
 70
    64
 62
     7
  6
CONTINUOUS
  0
LAYER
  2
23
 70
    64
 62
     7
  6
CONTINUOUS
  0
LAYER
  2
24
 70
    64
 62
     7
  6
CONTINUOUS
  0
LAYER
  2
25
 70
    64
 62
     7
  6
CONTINUOUS
  0
LAYER
  2
26
 70
    64
 62
     7
  6
CONTINUOUS
  0
LAYER
  2
27
 70
    64
 62
     7
  6
CONTINUOUS
  0
LAYER
  2
28
 70
    64
 62
     7
  6
CONTINUOUS
  0
LAYER
  2
29
 70
    64
 62
     7
  6
CONTINUOUS
  0
LAYER
  2
30
 70
    64
 62
     7
  6
CONTINUOUS
  0
LAYER
  2
31
 70
    64
 62
     7
  6
CONTINUOUS
  0
LAYER
  2
32
 70
    64
 62
     7
  6
CONTINUOUS
  0
LAYER
  2
33
 70
    64
 62
     7
  6
CONTINUOUS
  0
LAYER
  2
34
 70
    64
 62
     7
  6
CONTINUOUS
  0
LAYER
  2
35
 70
    64
 62
     7
  6
CONTINUOUS
  0
LAYER
  2
36
 70
    64
 62
     7
  6
CONTINUOUS
  0
LAYER
  2
37
 70
    64
 62
     7
  6
CONTINUOUS
  0
LAYER
  2
38
 70
    64
 62
     7
  6
CONTINUOUS
  0
LAYER
  2
39
 70
    64
 62
     7
  6
CONTINUOUS
  0
LAYER
  2
40
 70
    64
 62
     7
  6
CONTINUOUS
  0
LAYER
  2
41
 70
    64
 62
     7
  6
CONTINUOUS
  0
LAYER
  2
42
 70
    64
 62
     7
  6
CONTINUOUS
  0
LAYER
  2
43
 70
    64
 62
     7
  6
CONTINUOUS
  0
LAYER
  2
44
 70
    64
 62
     7
  6
CONTINUOUS
  0
LAYER
  2
45
 70
    64
 62
     7
  6
CONTINUOUS
  0
LAYER
  2
46
 70
    64
 62
     7
  6
CONTINUOUS
  0
LAYER
  2
47
 70
    64
 62
     7
  6
CONTINUOUS
  0
LAYER
  2
48
 70
    64
 62
     7
  6
CONTINUOUS
  0
LAYER
  2
49
 70
    64
 62
     7
  6
CONTINUOUS
  0
LAYER
  2
50
 70
    64
 62
     7
  6
CONTINUOUS
  0
LAYER
  2
51
 70
    64
 62
     7
  6
CONTINUOUS
  0
LAYER
  2
52
 70
    64
 62
     7
  6
CONTINUOUS
  0
LAYER
  2
53
 70
    64
 62
     7
  6
CONTINUOUS
  0
LAYER
  2
54
 70
    64
 62
     7
  6
CONTINUOUS
  0
LAYER
  2
55
 70
    64
 62
     7
  6
CONTINUOUS
  0
LAYER
  2
56
 70
    64
 62
     7
  6
CONTINUOUS
  0
LAYER
  2
57
 70
    64
 62
     7
  6
CONTINUOUS
  0
LAYER
  2
58
 70
    64
 62
     7
  6
CONTINUOUS
  0
LAYER
  2
59
 70
    64
 62
     7
  6
CONTINUOUS
  0
LAYER
  2
60
 70
    64
 62
     7
  6
CONTINUOUS
  0
LAYER
  2
61
 70
    64
 62
     7
  6
CONTINUOUS
  0
LAYER
  2
62
 70
    64
 62
     7
  6
CONTINUOUS
  0
LAYER
  2
63
 70
    64
 62
     7
  6
CONTINUOUS
  0
LAYER
  2
64
 70
    64
 62
     7
  6
CONTINUOUS
  0
LAYER
  2
65
 70
    64
 62
     7
  6
CONTINUOUS
  0
LAYER
  2
66
 70
    64
 62
     7
  6
CONTINUOUS
  0
LAYER
  2
67
 70
    64
 62
     7
  6
CONTINUOUS
  0
LAYER
  2
68
 70
    64
 62
     7
  6
CONTINUOUS
  0
LAYER
  2
69
 70
    64
 62
     7
  6
CONTINUOUS
  0
LAYER
  2
70
 70
    64
 62
     7
  6
CONTINUOUS
  0
LAYER
  2
71
 70
    64
 62
     7
  6
CONTINUOUS
  0
LAYER
  2
72
 70
    64
 62
     7
  6
CONTINUOUS
  0
LAYER
  2
73
 70
    64
 62
     7
  6
CONTINUOUS
  0
LAYER
  2
74
 70
    64
 62
     7
  6
CONTINUOUS
  0
LAYER
  2
75
 70
    64
 62
     7
  6
CONTINUOUS
  0
LAYER
  2
76
 70
    64
 62
     7
  6
CONTINUOUS
  0
LAYER
  2
77
 70
    64
 62
     7
  6
CONTINUOUS
  0
LAYER
  2
78
 70
    64
 62
     7
  6
CONTINUOUS
  0
LAYER
  2
79
 70
    64
 62
     7
  6
CONTINUOUS
  0
LAYER
  2
80
 70
    64
 62
     7
  6
CONTINUOUS
  0
LAYER
  2
81
 70
    64
 62
     7
  6
CONTINUOUS
  0
LAYER
  2
82
 70
    64
 62
     7
  6
CONTINUOUS
  0
LAYER
  2
83
 70
    64
 62
     7
  6
CONTINUOUS
  0
LAYER
  2
84
 70
    64
 62
     7
  6
CONTINUOUS
  0
LAYER
  2
85
 70
    64
 62
     7
  6
CONTINUOUS
  0
LAYER
  2
86
 70
    64
 62
     7
  6
CONTINUOUS
  0
LAYER
  2
87
 70
    64
 62
     7
  6
CONTINUOUS
  0
LAYER
  2
88
 70
    64
 62
     7
  6
CONTINUOUS
  0
LAYER
  2
89
 70
    64
 62
     7
  6
CONTINUOUS
  0
LAYER
  2
90
 70
    64
 62
     7
  6
CONTINUOUS
  0
LAYER
  2
91
 70
    64
 62
     7
  6
CONTINUOUS
  0
LAYER
  2
92
 70
    64
 62
     7
  6
CONTINUOUS
  0
LAYER
  2
93
 70
    64
 62
     7
  6
CONTINUOUS
  0
LAYER
  2
94
 70
    64
 62
     7
  6
CONTINUOUS
  0
LAYER
  2
95
 70
    64
 62
     7
  6
CONTINUOUS
  0
LAYER
  2
96
 70
    64
 62
     7
  6
CONTINUOUS
  0
LAYER
  2
97
 70
    64
 62
     7
  6
CONTINUOUS
  0
LAYER
  2
98
 70
    64
 62
     7
  6
CONTINUOUS
  0
LAYER
  2
99
 70
    64
 62
     7
  6
CONTINUOUS
  0
LAYER
  2
100
 70
    64
 62
     7
  6
CONTINUOUS
  0
LAYER
  2
101
 70
    64
 62
     7
  6
CONTINUOUS
  0
LAYER
  2
102
 70
    64
 62
     7
  6
CONTINUOUS
  0
LAYER
  2
103
 70
    64
 62
     7
  6
CONTINUOUS
  0
LAYER
  2
104
 70
    64
 62
     7
  6
CONTINUOUS
  0
LAYER
  2
105
 70
    64
 62
     7
  6
CONTINUOUS
  0
LAYER
  2
106
 70
    64
 62
     7
  6
CONTINUOUS
  0
LAYER
  2
107
 70
    64
 62
     7
  6
CONTINUOUS
  0
LAYER
  2
108
 70
    64
 62
     7
  6
CONTINUOUS
  0
LAYER
  2
109
 70
    64
 62
     7
  6
CONTINUOUS
  0
LAYER
  2
110
 70
    64
 62
     7
  6
CONTINUOUS
  0
LAYER
  2
111
 70
    64
 62
     7
  6
CONTINUOUS
  0
LAYER
  2
112
 70
    64
 62
     7
  6
CONTINUOUS
  0
LAYER
  2
113
 70
    64
 62
     7
  6
CONTINUOUS
  0
LAYER
  2
114
 70
    64
 62
     7
  6
CONTINUOUS
  0
LAYER
  2
115
 70
    64
 62
     7
  6
CONTINUOUS
  0
LAYER
  2
116
 70
    64
 62
     7
  6
CONTINUOUS
  0
LAYER
  2
117
 70
    64
 62
     7
  6
CONTINUOUS
  0
LAYER
  2
118
 70
    64
 62
     7
  6
CONTINUOUS
  0
LAYER
  2
119
 70
    64
 62
     7
  6
CONTINUOUS
  0
LAYER
  2
120
 70
    64
 62
     7
  6
CONTINUOUS
  0
LAYER
  2
121
 70
    64
 62
     7
  6
CONTINUOUS
  0
LAYER
  2
122
 70
    64
 62
     7
  6
CONTINUOUS
  0
LAYER
  2
123
 70
    64
 62
     7
  6
CONTINUOUS
  0
LAYER
  2
124
 70
    64
 62
     7
  6
CONTINUOUS
  0
LAYER
  2
125
 70
    64
 62
     7
  6
CONTINUOUS
  0
LAYER
  2
126
 70
    64
 62
     7
  6
CONTINUOUS
  0
LAYER
  2
127
 70
    64
 62
     7
  6
CONTINUOUS
  0
LAYER
  2
128
 70
    64
 62
     7
  6
CONTINUOUS
  0
LAYER
  2
129
 70
    64
 62
     7
  6
CONTINUOUS
  0
LAYER
  2
130
 70
    64
 62
     7
  6
CONTINUOUS
  0
LAYER
  2
131
 70
    64
 62
     7
  6
CONTINUOUS
  0
LAYER
  2
132
 70
    64
 62
     7
  6
CONTINUOUS
  0
LAYER
  2
133
 70
    64
 62
     7
  6
CONTINUOUS
  0
LAYER
  2
134
 70
    64
 62
     7
  6
CONTINUOUS
  0
LAYER
  2
135
 70
    64
 62
     7
  6
CONTINUOUS
  0
LAYER
  2
136
 70
    64
 62
     7
  6
CONTINUOUS
  0
LAYER
  2
137
 70
    64
 62
     7
  6
CONTINUOUS
  0
LAYER
  2
138
 70
    64
 62
     7
  6
CONTINUOUS
  0
LAYER
  2
139
 70
    64
 62
     7
  6
CONTINUOUS
  0
LAYER
  2
140
 70
    64
 62
     7
  6
CONTINUOUS
  0
LAYER
  2
141
 70
    64
 62
     7
  6
CONTINUOUS
  0
LAYER
  2
142
 70
    64
 62
     7
  6
CONTINUOUS
  0
LAYER
  2
143
 70
    64
 62
     7
  6
CONTINUOUS
  0
LAYER
  2
144
 70
    64
 62
     7
  6
CONTINUOUS
  0
LAYER
  2
145
 70
    64
 62
     7
  6
CONTINUOUS
  0
LAYER
  2
146
 70
    64
 62
     7
  6
CONTINUOUS
  0
LAYER
  2
147
 70
    64
 62
     7
  6
CONTINUOUS
  0
LAYER
  2
148
 70
    64
 62
     7
  6
CONTINUOUS
  0
LAYER
  2
149
 70
    64
 62
     7
  6
CONTINUOUS
  0
LAYER
  2
150
 70
    64
 62
     7
  6
CONTINUOUS
  0
LAYER
  2
151
 70
    64
 62
     7
  6
CONTINUOUS
  0
LAYER
  2
152
 70
    64
 62
     7
  6
CONTINUOUS
  0
LAYER
  2
153
 70
    64
 62
     7
  6
CONTINUOUS
  0
LAYER
  2
154
 70
    64
 62
     7
  6
CONTINUOUS
  0
LAYER
  2
155
 70
    64
 62
     7
  6
CONTINUOUS
  0
LAYER
  2
156
 70
    64
 62
     7
  6
CONTINUOUS
  0
LAYER
  2
157
 70
    64
 62
     7
  6
CONTINUOUS
  0
LAYER
  2
158
 70
    64
 62
     7
  6
CONTINUOUS
  0
LAYER
  2
159
 70
    64
 62
     7
  6
CONTINUOUS
  0
LAYER
  2
160
 70
    64
 62
     7
  6
CONTINUOUS
  0
LAYER
  2
161
 70
    64
 62
     7
  6
CONTINUOUS
  0
LAYER
  2
162
 70
    64
 62
     7
  6
CONTINUOUS
  0
LAYER
  2
163
 70
    64
 62
     7
  6
CONTINUOUS
  0
LAYER
  2
164
 70
    64
 62
     7
  6
CONTINUOUS
  0
LAYER
  2
165
 70
    64
 62
     7
  6
CONTINUOUS
  0
LAYER
  2
166
 70
    64
 62
     7
  6
CONTINUOUS
  0
LAYER
  2
167
 70
    64
 62
     7
  6
CONTINUOUS
  0
LAYER
  2
168
 70
    64
 62
     7
  6
CONTINUOUS
  0
LAYER
  2
169
 70
    64
 62
     7
  6
CONTINUOUS
  0
LAYER
  2
170
 70
    64
 62
     7
  6
CONTINUOUS
  0
LAYER
  2
171
 70
    64
 62
     7
  6
CONTINUOUS
  0
LAYER
  2
172
 70
    64
 62
     7
  6
CONTINUOUS
  0
LAYER
  2
173
 70
    64
 62
     7
  6
CONTINUOUS
  0
LAYER
  2
174
 70
    64
 62
     7
  6
CONTINUOUS
  0
LAYER
  2
175
 70
    64
 62
     7
  6
CONTINUOUS
  0
LAYER
  2
176
 70
    64
 62
     7
  6
CONTINUOUS
  0
LAYER
  2
177
 70
    64
 62
     7
  6
CONTINUOUS
  0
LAYER
  2
178
 70
    64
 62
     7
  6
CONTINUOUS
  0
LAYER
  2
179
 70
    64
 62
     7
  6
CONTINUOUS
  0
LAYER
  2
180
 70
    64
 62
     7
  6
CONTINUOUS
  0
LAYER
  2
181
 70
    64
 62
     7
  6
CONTINUOUS
  0
LAYER
  2
182
 70
    64
 62
     7
  6
CONTINUOUS
  0
LAYER
  2
183
 70
    64
 62
     7
  6
CONTINUOUS
  0
LAYER
  2
184
 70
    64
 62
     7
  6
CONTINUOUS
  0
LAYER
  2
185
 70
    64
 62
     7
  6
CONTINUOUS
  0
LAYER
  2
186
 70
    64
 62
     7
  6
CONTINUOUS
  0
LAYER
  2
187
 70
    64
 62
     7
  6
CONTINUOUS
  0
LAYER
  2
188
 70
    64
 62
     7
  6
CONTINUOUS
  0
LAYER
  2
189
 70
    64
 62
     7
  6
CONTINUOUS
  0
LAYER
  2
190
 70
    64
 62
     7
  6
CONTINUOUS
  0
LAYER
  2
191
 70
    64
 62
     7
  6
CONTINUOUS
  0
LAYER
  2
192
 70
    64
 62
     7
  6
CONTINUOUS
  0
LAYER
  2
193
 70
    64
 62
     7
  6
CONTINUOUS
  0
LAYER
  2
194
 70
    64
 62
     7
  6
CONTINUOUS
  0
LAYER
  2
195
 70
    64
 62
     7
  6
CONTINUOUS
  0
LAYER
  2
196
 70
    64
 62
     7
  6
CONTINUOUS
  0
LAYER
  2
197
 70
    64
 62
     7
  6
CONTINUOUS
  0
LAYER
  2
198
 70
    64
 62
     7
  6
CONTINUOUS
  0
LAYER
  2
199
 70
    64
 62
     7
  6
CONTINUOUS
  0
LAYER
  2
200
 70
    64
 62
     7
  6
CONTINUOUS
  0
LAYER
  2
201
 70
    64
 62
     7
  6
CONTINUOUS
  0
LAYER
  2
202
 70
    64
 62
     7
  6
CONTINUOUS
  0
LAYER
  2
203
 70
    64
 62
     7
  6
CONTINUOUS
  0
LAYER
  2
204
 70
    64
 62
     7
  6
CONTINUOUS
  0
LAYER
  2
205
 70
    64
 62
     7
  6
CONTINUOUS
  0
LAYER
  2
206
 70
    64
 62
     7
  6
CONTINUOUS
  0
LAYER
  2
207
 70
    64
 62
     7
  6
CONTINUOUS
  0
LAYER
  2
208
 70
    64
 62
     7
  6
CONTINUOUS
  0
LAYER
  2
209
 70
    64
 62
     7
  6
CONTINUOUS
  0
LAYER
  2
210
 70
    64
 62
     7
  6
CONTINUOUS
  0
LAYER
  2
211
 70
    64
 62
     7
  6
CONTINUOUS
  0
LAYER
  2
212
 70
    64
 62
     7
  6
CONTINUOUS
  0
LAYER
  2
213
 70
    64
 62
     7
  6
CONTINUOUS
  0
LAYER
  2
214
 70
    64
 62
     7
  6
CONTINUOUS
  0
LAYER
  2
215
 70
    64
 62
     7
  6
CONTINUOUS
  0
LAYER
  2
216
 70
    64
 62
     7
  6
CONTINUOUS
  0
LAYER
  2
217
 70
    64
 62
     7
  6
CONTINUOUS
  0
LAYER
  2
218
 70
    64
 62
     7
  6
CONTINUOUS
  0
LAYER
  2
219
 70
    64
 62
     7
  6
CONTINUOUS
  0
LAYER
  2
220
 70
    64
 62
     7
  6
CONTINUOUS
  0
LAYER
  2
221
 70
    64
 62
     7
  6
CONTINUOUS
  0
LAYER
  2
222
 70
    64
 62
     7
  6
CONTINUOUS
  0
LAYER
  2
223
 70
    64
 62
     7
  6
CONTINUOUS
  0
LAYER
  2
224
 70
    64
 62
     7
  6
CONTINUOUS
  0
LAYER
  2
225
 70
    64
 62
     7
  6
CONTINUOUS
  0
LAYER
  2
226
 70
    64
 62
     7
  6
CONTINUOUS
  0
LAYER
  2
227
 70
    64
 62
     7
  6
CONTINUOUS
  0
LAYER
  2
228
 70
    64
 62
     7
  6
CONTINUOUS
  0
LAYER
  2
229
 70
    64
 62
     7
  6
CONTINUOUS
  0
LAYER
  2
230
 70
    64
 62
     7
  6
CONTINUOUS
  0
LAYER
  2
231
 70
    64
 62
     7
  6
CONTINUOUS
  0
LAYER
  2
232
 70
    64
 62
     7
  6
CONTINUOUS
  0
LAYER
  2
233
 70
    64
 62
     7
  6
CONTINUOUS
  0
LAYER
  2
234
 70
    64
 62
     7
  6
CONTINUOUS
  0
LAYER
  2
235
 70
    64
 62
     7
  6
CONTINUOUS
  0
LAYER
  2
236
 70
    64
 62
     7
  6
CONTINUOUS
  0
LAYER
  2
237
 70
    64
 62
     7
  6
CONTINUOUS
  0
LAYER
  2
238
 70
    64
 62
     7
  6
CONTINUOUS
  0
LAYER
  2
239
 70
    64
 62
     7
  6
CONTINUOUS
  0
LAYER
  2
240
 70
    64
 62
     7
  6
CONTINUOUS
  0
LAYER
  2
241
 70
    64
 62
     7
  6
CONTINUOUS
  0
LAYER
  2
242
 70
    64
 62
     7
  6
CONTINUOUS
  0
LAYER
  2
243
 70
    64
 62
     7
  6
CONTINUOUS
  0
LAYER
  2
244
 70
    64
 62
     7
  6
CONTINUOUS
  0
LAYER
  2
245
 70
    64
 62
     7
  6
CONTINUOUS
  0
LAYER
  2
246
 70
    64
 62
     7
  6
CONTINUOUS
  0
LAYER
  2
247
 70
    64
 62
     7
  6
CONTINUOUS
  0
LAYER
  2
248
 70
    64
 62
     7
  6
CONTINUOUS
  0
LAYER
  2
249
 70
    64
 62
     7
  6
CONTINUOUS
  0
LAYER
  2
250
 70
    64
 62
     7
  6
CONTINUOUS
  0
LAYER
  2
251
 70
    64
 62
     7
  6
CONTINUOUS
  0
LAYER
  2
252
 70
    64
 62
     7
  6
CONTINUOUS
  0
LAYER
  2
253
 70
    64
 62
     7
  6
CONTINUOUS
  0
LAYER
  2
254
 70
    64
 62
     7
  6
CONTINUOUS
  0
LAYER
  2
255
 70
    64
 62
     7
  6
CONTINUOUS
  0
ENDTAB
  0
TABLE
  2
STYLE
 70
     2
  0
STYLE
  2
STANDARD
 70
    64
 40
0.0
 41
1.0
 50
0.0
 71
     0
 42
3.000000
  3
TXT
  4
BIGFONT
  0
ENDTAB
  0
ENDSEC
  0
SECTION
  2
ENTITIES
  0
LINE
  8
224
  6
CONTINUOUS
 62
     5
 10
-535.90281746024266
 20
-833.31478167189948
 11
-535.90281746024266
 21
 828.68521832810052
  0
LINE
  8
224
  6
CONTINUOUS
 62
     5
 10
 574.09718253975734
 20
 828.68521832810052
 11
 574.09718253975734
 21
-833.31478167189948
  0
LINE
  8
224
  6
CONTINUOUS
 62
     5
 10
 574.09718253975734
 20
-833.31478167189948
 11
-535.90281746024266
 21
-833.31478167189948
  0
LINE
  8
224
  6
CONTINUOUS
 62
     5
 10
-535.90281746024266
 20
 828.68521832810052
 11
 574.09718253975734
 21
 828.68521832810052
  0
LINE
  8
224
  6
CONTINUOUS
 62
     5
 10
 574.09718253975734
 20
-599.31478167189948
 11
-535.90281746024266
 21
-599.31478167189948
  0
LINE
  8
224
  6
CONTINUOUS
 62
     5
 10
 574.09718253975734
 20
-647.31478167189948
 11
-535.90281746024266
 21
-647.31478167189948
  0
LINE
  8
224
  6
CONTINUOUS
 62
     5
 10
 574.09718253975734
 20
-725.31478167189948
 11
-535.90281746024266
 21
-725.31478167189948
  0
LINE
  8
224
  6
CONTINUOUS
 62
     5
 10
 94.09718253975737
 20
-767.31478167189948
 11
-535.90281746024266
 21
-767.31478167189948
  0
LINE
  8
224
  6
CONTINUOUS
 62
     5
 10
 94.09718253975737
 20
-833.31478167189948
 11
 94.09718253975737
 21
-599.31478167189948
  0
LINE
  8
224
  6
CONTINUOUS
 62
     5
 10
-378.40281746024266
 20
-725.31478167189948
 11
-378.40281746024266
 21
-833.31478167189948
  0
LINE
  8
224
  6
CONTINUOUS
 62
     5
 10
-220.90281746024263
 20
-725.31478167189948
 11
-220.90281746024263
 21
-833.31478167189948
  0
LINE
  8
224
  6
CONTINUOUS
 62
     5
 10
-63.402817460242638
 20
-725.31478167189948
 11
-63.402817460242638
 21
-833.31478167189948
  0
LINE
  8
224
  6
CONTINUOUS
 62
     5
 10
-535.90281746024266
 20
-683.31478167189948
 11
 94.09718253975737
 21
-683.31478167189948
  0
LINE
  8
224
  6
CONTINUOUS
 62
     5
 10
 478.09718253975734
 20
-599.31478167189948
 11
 478.09718253975734
 21
-725.31478167189948
  0
LINE
  8
224
  6
CONTINUOUS
 62
     5
 10
 458.09718253975734
 20
-701.31478167189948
 11
 114.09718253975737
 21
-701.31478167189948
  0
TEXT
  8
224
  6
CONTINUOUS
 62
     5
 10
-501.55281756753101
 20
-764.31478167189948
 11
-412.752817567531
 21
-764.31478167189948
 40
 18
 41
 0.8
  1
承認
 50
 0
 72
  5
  0
TEXT
  8
224
  6
CONTINUOUS
 62
     5
 10
-344.05281756753101
 20
-764.31478167189948
 11
-255.252817567531
 21
-764.31478167189948
 40
 18
 41
 0.8
  1
検図
 50
 0
 72
  5
  0
TEXT
  8
224
  6
CONTINUOUS
 62
     5
 10
-186.55281756753098
 20
-764.31478167189948
 11
-97.752817567530997
 21
-764.31478167189948
 40
 18
 41
 0.8
  1
設計
 50
 0
 72
  5
  0
TEXT
  8
224
  6
CONTINUOUS
 62
     5
 10
-29.05281756753099
 20
-764.31478167189948
 11
 59.747182432469003
 21
-764.31478167189948
 40
 18
 41
 0.8
  1
製図
 50
 0
 72
  5
  0
TEXT
  8
208
  6
CONTINUOUS
 62
     3
 10
-427.90281746024266
 20
-713.31478167189937
 11
-13.902817460242659
 21
-713.31478167189937
 40
 18
 41
 0.8
  1
ＤＰポンプ外形寸法図
 50
 0
 72
  5
  0
TEXT
  8
208
  6
CONTINUOUS
 62
     3
 10
 498.49718259340153
 20
-695.31478167189948
 11
 553.69718259340152
 21
-695.31478167189948
 40
 18
 41
 0.8
  1
１／６
 50
 0
 72
  5
  0
TEXT
  8
224
  6
CONTINUOUS
 62
     5
 10
 149.29718257552017
 20
-641.31478167189948
 11
 422.89718257552011
 21
-641.31478167189948
 40
 18
 41
 0.8
  1
図面番号
 50
 0
 72
  5
  0
TEXT
  8
224
  6
CONTINUOUS
 62
     5
 10
 496.69718261128293
 20
-641.31478167189948
 11
 555.49718261128282
 21
-641.31478167189948
 40
 18
 41
 0.8
  1
尺度
 50
 0
 72
  5
  0
TEXT
  8
224
  6
CONTINUOUS
 62
     5
 10
-429.70281742447975
 20
-641.31478167189948
 11
-12.102817424479724
 21
-641.31478167189948
 40
 18
 41
 0.8
  1
図面名称
 50
 0
 72
  5
  0
TEXT
  8
208
  6
CONTINUOUS
 62
     3
 10
 149.2971824861132
 20
-683.31478167189948
 11
 422.89718248611314
 21
-683.31478167189948
 40
 18
 41
 0.8
  1
CAP-0-144
 50
 0
 72
  5
  0
LINE
  8
85
  6
CENTER
 62
     7
 10
-166.90281544101231
 20
 467.68519732810057
 11
 238.66418055898819
 21
 467.68519732810057
  0
LINE
  8
85
  6
CONTINUOUS
 62
     4
 10
 214.09716555898854
 20
 495.18520832810043
 11
 131.0971475589879
 21
 495.18520832810043
  0
LINE
  8
85
  6
CONTINUOUS
 62
     4
 10
 131.0971475589879
 20
 515.18523132810049
 11
 120.09716055898775
 21
 515.18523132810049
  0
LINE
  8
85
  6
CONTINUOUS
 62
     4
 10
 120.09716055898775
 20
 495.68523932810047
 11
 120.09716055898775
 21
 517.68521232810042
  0
LINE
  8
85
  6
CONTINUOUS
 62
     4
 10
 120.09716055898775
 20
 517.68521232810042
 11
 55.097172558988184
 21
 517.68521232810042
  0
LINE
  8
85
  6
CONTINUOUS
 62
     4
 10
 55.097172558988184
 20
 495.68523932810047
 11
 55.097172558988184
 21
 517.68521232810042
  0
LINE
  8
85
  6
CONTINUOUS
 62
     4
 10
 55.097172558988184
 20
 515.18523132810049
 11
 33.097155558987886
 21
 515.18523132810049
  0
LINE
  8
85
  6
CONTINUOUS
 62
     4
 10
 214.09716555898854
 20
 440.18523132810014
 11
 131.0971475589879
 21
 440.18523132810049
  0
LINE
  8
85
  6
CONTINUOUS
 62
     4
 10
 55.097172558988184
 20
 495.68523932810047
 11
 63.097190558987919
 21
 487.68522132810057
  0
LINE
  8
85
  6
CONTINUOUS
 62
     4
 10
 120.09716055898775
 20
 495.68523932810047
 11
 112.09718655898837
 21
 487.68522132810057
  0
LINE
  8
85
  6
CONTINUOUS
 62
     4
 10
 63.097190558987919
 20
 487.68522132810057
 11
 112.09718655898837
 21
 487.68522132810057
  0
LINE
  8
85
  6
CONTINUOUS
 62
     4
 10
-80.90282944101159
 20
 527.18519232810047
 11
-80.90282944101159
 21
 532.18524332810046
  0
LINE
  8
85
  6
CONTINUOUS
 62
     4
 10
-80.90282944101159
 20
 532.18524332810046
 11
-52.90283144101226
 21
 532.18524332810046
  0
LINE
  8
85
  6
CONTINUOUS
 62
     4
 10
-52.90283144101226
 20
 532.18524332810046
 11
-52.90283144101226
 21
 527.18519232810047
  0
LINE
  8
85
  6
CONTINUOUS
 62
     4
 10
-58.902812441012202
 20
 532.18524332810046
 11
-58.902812441012202
 21
 538.18522332810028
  0
LINE
  8
85
  6
CONTINUOUS
 62
     4
 10
-58.902812441012202
 20
 538.18522332810028
 11
-74.902804441012222
 21
 538.18522332810028
  0
LINE
  8
85
  6
CONTINUOUS
 62
     4
 10
-74.902804441012222
 20
 538.18522332810028
 11
-74.902804441012222
 21
 532.18524332810046
  0
LINE
  8
85
  6
CONTINUOUS
 62
     4
 10
-72.902810441011525
 20
 538.18522332810028
 11
-72.902810441011525
 21
 542.18521032810042
  0
LINE
  8
85
  6
CONTINUOUS
 62
     4
 10
-72.902810441011525
 20
 542.18521032810042
 11
-60.902805441011651
 21
 542.18521032810042
  0
LINE
  8
85
  6
CONTINUOUS
 62
     4
 10
-60.902805441011651
 20
 542.18521032810042
 11
-60.902805441011651
 21
 538.18522332810028
  0
LINE
  8
85
  6
CONTINUOUS
 62
     4
 10
-1.902841441012008
 20
 501.18523332810048
 11
-1.902841441012008
 21
 520.18523732810047
  0
LINE
  8
85
  6
CONTINUOUS
 62
     4
 10
-1.902841441012008
 20
 520.18523732810047
 11
-131.9028184410115
 21
 520.18523732810047
  0
LINE
  8
85
  6
CONTINUOUS
 62
     4
 10
-116.90284544101156
 20
 512.68520632810043
 11
-16.902815441012301
 21
 512.68520632810043
  0
LINE
  8
85
  6
CONTINUOUS
 62
     4
 10
-16.902815441012301
 20
 512.68520632810043
 11
-16.902815441012301
 21
 422.68518832810048
  0
LINE
  8
85
  6
CONTINUOUS
 62
     4
 10
-16.902815441012301
 20
 422.68518832810048
 11
-116.90284544101156
 21
 422.68518832810048
  0
LINE
  8
85
  6
CONTINUOUS
 62
     4
 10
-116.90284544101156
 20
 422.68518832810048
 11
-116.90284544101156
 21
 512.68520632810043
  0
LINE
  8
85
  6
CONTINUOUS
 62
     4
 10
 33.097155558987886
 20
 515.18523132810049
 11
-1.902841441012008
 21
 520.18523732810047
  0
LINE
  8
85
  6
CONTINUOUS
 62
     4
 10
 131.0971475589879
 20
 427.68519432810047
 11
 120.09716055898775
 21
 427.68519432810047
  0
LINE
  8
85
  6
CONTINUOUS
 62
     4
 10
 120.09716055898775
 20
 432.68524432810057
 11
 55.097172558988184
 21
 432.68524432810057
  0
LINE
  8
85
  6
CONTINUOUS
 62
     4
 10
 55.097172558988184
 20
 427.68519432810047
 11
 34.097174558987952
 21
 427.68519432810047
  0
LINE
  8
85
  6
CONTINUOUS
 62
     4
 10
 34.097174558987952
 20
 427.68519432810047
 11
-1.902841441012008
 21
 415.18524632810033
  0
CIRCLE
  8
85
  6
CONTINUOUS
 62
     4
 10
-66.902830441011929
 20
 467.68519732810057
 40
 17.499998999999999
  0
CIRCLE
  8
85
  6
CONTINUOUS
 62
     4
 10
-66.902830441011929
 20
 467.68519732810057
 40
 19.999979
  0
LINE
  8
85
  6
CONTINUOUS
 62
     4
 10
-80.90282944101159
 20
 415.18524632810033
 11
-80.90282944101159
 21
 410.18519632810046
  0
LINE
  8
85
  6
CONTINUOUS
 62
     4
 10
-80.90282944101159
 20
 410.18519632810046
 11
-52.90283144101226
 21
 410.18519632810046
  0
LINE
  8
85
  6
CONTINUOUS
 62
     4
 10
-52.90283144101226
 20
 410.18519632810046
 11
-52.90283144101226
 21
 415.18524632810033
  0
LINE
  8
85
  6
CENTER
 62
     7
 10
-66.902830441011929
 20
 566.02421332810047
 11
-66.902830441011929
 21
 276.39221632810057
  0
LINE
  8
85
  6
CENTER
 62
     7
 10
-127.15683744101237
 20
 482.18522832810055
 11
-201.06282744101168
 21
 482.18522832810055
  0
LINE
  8
85
  6
CONTINUOUS
 62
     4
 10
-144.40285544101221
 20
 494.18523332810048
 11
-166.90281544101231
 21
 494.18523332810048
  0
LINE
  8
85
  6
CONTINUOUS
 62
     4
 10
-166.90281544101231
 20
 470.18522232810034
 11
-166.90281544101231
 21
 497.18524632810033
  0
LINE
  8
85
  6
CONTINUOUS
 62
     4
 10
-166.90281544101231
 20
 470.18522232810034
 11
-144.40285544101221
 21
 470.18522232810034
  0
LINE
  8
85
  6
CONTINUOUS
 62
     4
 10
-166.90281544101231
 20
 497.18524632810033
 11
-176.40284044101168
 21
 502.18520732810038
  0
LINE
  8
85
  6
CONTINUOUS
 62
     4
 10
-166.90281544101231
 20
 467.18521032810048
 11
-176.40284044101168
 21
 462.18520432810044
  0
LINE
  8
85
  6
CONTINUOUS
 62
     4
 10
-176.40284044101168
 20
 502.18520732810038
 11
-191.40281344101163
 21
 502.18520732810038
  0
LINE
  8
85
  6
CONTINUOUS
 62
     4
 10
-191.40281344101163
 20
 502.18520732810038
 11
-191.40281344101163
 21
 462.18520432810044
  0
LINE
  8
85
  6
CONTINUOUS
 62
     4
 10
-191.40281344101163
 20
 462.18520432810044
 11
-176.40284044101168
 21
 462.18520432810044
  0
LINE
  8
85
  6
CONTINUOUS
 62
     4
 10
-176.40284044101168
 20
 462.18520432810044
 11
-176.40284044101168
 21
 502.18520732810038
  0
ARC
  8
85
  6
CONTINUOUS
 62
     4
 10
-124.90281944101184
 20
 520.18523732810047
 40
 6.9999989999999999
 50
 90.000001718873406
 51
 180.00000286478902
  0
ARC
  8
85
  6
CONTINUOUS
 62
     4
 10
-8.9028414410120078
 20
 520.18523732810047
 40
 6.9999989999999999
 50
 0
 51
 90.000001718873406
  0
LINE
  8
85
  6
CONTINUOUS
 62
     4
 10
-124.90281944101184
 20
 527.18519232810047
 11
-8.9028414410120078
 21
 527.18519232810047
  0
ARC
  8
85
  6
CONTINUOUS
 62
     4
 10
-141.40284344101178
 20
 499.18523932810047
 40
 3.0000119999999999
 50
 90.000001718873406
 51
 180.00000286478902
  0
LINE
  8
85
  6
CONTINUOUS
 62
     4
 10
-131.9028184410115
 20
 502.18520732810038
 11
-141.40284344101178
 21
 502.18520732810038
  0
ARC
  8
85
  6
CONTINUOUS
 62
     4
 10
-141.40284344101178
 20
 465.18521632810047
 40
 3.0000119999999999
 50
 180.00000286478902
 51
-90.000001557275667
  0
LINE
  8
85
  6
CONTINUOUS
 62
     4
 10
-144.40285544101221
 20
 499.18523932810047
 11
-144.40285544101221
 21
 465.18521632810047
  0
LINE
  8
85
  6
CONTINUOUS
 62
     4
 10
-141.40284344101178
 20
 462.18520432810044
 11
-131.9028184410115
 21
 462.18520432810044
  0
ARC
  8
85
  6
CONTINUOUS
 62
     4
 10
 4.0971825589879316
 20
 501.18523332810048
 40
 5.9999809999999991
 50
 180.00000286478902
 51
-90.000001557275667
  0
ARC
  8
85
  6
CONTINUOUS
 62
     4
 10
 4.0971825589879316
 20
 441.68523732810047
 40
 5.9999809999999991
 50
 90.000001718873406
 51
 180.00000286478902
  0
LINE
  8
85
  6
CONTINUOUS
 62
     4
 10
-1.902841441012008
 20
 399.68524132810046
 11
-1.902841441012008
 21
 441.68523732810047
  0
ARC
  8
85
  6
CONTINUOUS
 62
     4
 10
 28.097193558988018
 20
 441.68523732810047
 40
 5.9999809999999991
 50
 0
 51
 90.000001718873406
  0
LINE
  8
85
  6
CONTINUOUS
 62
     4
 10
 4.0971825589879316
 20
 447.6852183281004
 11
 28.097193558988018
 21
 447.6852183281004
  0
LINE
  8
85
  6
CONTINUOUS
 62
     4
 10
 34.097174558987952
 20
 427.68519432810047
 11
 34.097174558987952
 21
 441.68523732810047
  0
ARC
  8
85
  6
CONTINUOUS
 62
     4
 10
 63.097190558987919
 20
 448.80221632810037
 40
 7.9999739999999999
 50
 90.000001718873406
 51
 180.00000286478902
  0
LINE
  8
85
  6
CONTINUOUS
 62
     4
 10
-16.902815441012301
 20
 415.18524632810033
 11
-16.902815441012301
 21
 387.68519132810036
  0
LINE
  8
85
  6
CONTINUOUS
 62
     4
 10
-131.9028184410115
 20
 399.68524132810046
 11
-156.90284844101166
 21
 399.68524132810046
  0
LINE
  8
85
  6
CONTINUOUS
 62
     4
 10
-156.90284844101166
 20
 399.68524132810046
 11
-156.90284844101166
 21
 387.68519132810036
  0
LINE
  8
85
  6
CONTINUOUS
 62
     4
 10
-166.90281544101231
 20
 297.68521732810052
 11
-166.90281544101231
 21
 387.68519132810036
  0
LINE
  8
85
  6
CONTINUOUS
 62
     4
 10
-166.90281544101231
 20
 387.68519132810036
 11
 33.09719955898823
 21
 387.68519132810036
  0
LINE
  8
85
  6
CONTINUOUS
 62
     4
 10
 33.09719955898823
 20
 387.68519132810036
 11
 33.09719955898823
 21
 297.68521732810052
  0
LINE
  8
85
  6
CONTINUOUS
 62
     4
 10
-131.9028184410115
 20
 520.18523732810047
 11
-131.9028184410115
 21
 399.68524132810046
  0
ARC
  8
85
  6
CONTINUOUS
 62
     4
 10
-137.04704544101219
 20
 365.6852183281004
 40
 13.999998999999999
 50
 90.000001718873406
 51
 175.12072972160678
  0
ARC
  8
85
  6
CONTINUOUS
 62
     4
 10
 3.2413395589876544
 20
 365.6852183281004
 40
 13.999998999999999
 50
 4.8792748620556381
 51
 90.000001718873406
  0
LINE
  8
85
  6
CONTINUOUS
 62
     4
 10
-137.04704544101219
 20
 379.68521732810052
 11
 3.2413395589876544
 21
 379.68521732810052
  0
ARC
  8
85
  6
CONTINUOUS
 62
     4
 10
-163.33070644101167
 20
 304.68521732810052
 40
 6.9999989999999999
 50
-90.000001557275667
 51
-4.8792729815845259
  0
LINE
  8
85
  6
CONTINUOUS
 62
     4
 10
-156.35608644101171
 20
 304.08982132810036
 11
-150.99628344101234
 21
 366.87601032810028
  0
LINE
  8
85
  6
CONTINUOUS
 62
     4
 10
-166.90281544101231
 20
 297.68521732810052
 11
-163.33070644101167
 21
 297.68521732810052
  0
ARC
  8
85
  6
CONTINUOUS
 62
     4
 10
 29.52504555898782
 20
 304.68526132810041
 40
 6.9999989999999999
 50
-175.12072726817783
 51
-90.000216416452517
  0
LINE
  8
85
  6
CONTINUOUS
 62
     4
 10
 17.190666558987921
 20
 366.87601032810028
 11
 22.5504265589882
 21
 304.08982132810036
  0
LINE
  8
85
  6
CONTINUOUS
 62
     4
 10
 29.52504555898782
 20
 297.68521732810052
 11
 33.09719955898823
 21
 297.68521732810052
  0
ARC
  8
85
  6
CONTINUOUS
 62
     4
 10
-120.24786144101176
 20
 521.03027332810041
 40
 17.000010999999997
 50
 97.485042841009999
 51
 172.51496288856805
  0
LINE
  8
85
  6
CONTINUOUS
 62
     4
 10
-66.902830441011929
 20
 545.18522332810028
 11
-122.46241344101212
 21
 537.88539932810056
  0
LINE
  8
85
  6
CONTINUOUS
 62
     4
 10
-137.10303244101192
 20
 523.24482532810055
 11
-139.86997144101201
 21
 502.18520732810038
  0
ARC
  8
85
  6
CONTINUOUS
 62
     4
 10
-13.557755441011743
 20
 521.03027332810041
 40
 17.000010999999997
 50
 7.4850371114319554
 51
 82.514960596736813
  0
LINE
  8
85
  6
CONTINUOUS
 62
     4
 10
-11.343247441011719
 20
 537.88539932810056
 11
-66.902830441011929
 21
 545.18522332810028
  0
LINE
  8
85
  6
CONTINUOUS
 62
     4
 10
 3.2973715589880683
 20
 523.24482532810055
 11
 3.8065275589881442
 21
 519.3696133281004
  0
LINE
  8
85
  6
CONTINUOUS
 62
     4
 10
-137.15733644101215
 20
 412.53914032810042
 11
-138.27362044335555
 21
 421.0352413281002
  0
LINE
  8
85
  6
CONTINUOUS
 62
     4
 10
-140.54662934950457
 20
 438.33524132810044
 11
-144.40285544101221
 21
 467.68519732810057
  0
ARC
  8
85
  6
CONTINUOUS
 62
     4
 10
-120.30220944101232
 20
 414.75369232810056
 40
 17.000010999999997
 50
-172.51496387288594
 51
-133.03059718574764
  0
LINE
  8
85
  6
CONTINUOUS
 62
     4
 10
-66.902830441011929
 20
 390.18521632810041
 11
-116.90284544101156
 21
 397.1195283281005
  0
LINE
  8
85
  6
CONTINUOUS
 62
     4
 10
 3.2695555589882659
 20
 412.06103432810039
 11
 3.9671365589877112
 21
 417.22342032810059
  0
LINE
  8
85
  6
CONTINUOUS
 62
     4
 10
-66.902830441011929
 20
 390.18521632810041
 11
-16.902815441012301
 21
 396.75454832810044
  0
ARC
  8
85
  6
CONTINUOUS
 62
     4
 10
-13.57733244101177
 20
 414.33759732810051
 40
 17.000010999999997
 50
-48.252001768888071
 51
-0.000000000000014
  0
LINE
  8
85
  6
CONTINUOUS
 62
     4
 10
-137.43687344101158
 20
 520.70387232810037
 11
-143.36328244101219
 21
 522.29184632810041
  0
LINE
  8
85
  6
CONTINUOUS
 62
     4
 10
-143.36328244101219
 20
 522.29184632810041
 11
-150.89440744101171
 21
 494.18523332810048
  0
LINE
  8
85
  6
CONTINUOUS
 62
     4
 10
-141.16228444101193
 20
 443.02113532810029
 11
-163.03349544101161
 21
 448.88150232810051
  0
LINE
  8
85
  6
CONTINUOUS
 62
     4
 10
-163.03349544101161
 20
 448.88150232810051
 11
-157.90282344101229
 21
 470.18522232810034
  0
LINE
  8
85
  6
CONTINUOUS
 62
     4
 10
-144.13975144101164
 20
 519.39406332810051
 11
-150.90118444101222
 21
 521.20580932810037
  0
LINE
  8
85
  6
CONTINUOUS
 62
     4
 10
-158.1413444410116
 20
 494.18523332810048
 11
-150.12476044101163
 21
 524.10359132810038
  0
LINE
  8
85
  6
CONTINUOUS
 62
     4
 10
-160.69137744101204
 20
 458.60667232810044
 11
-167.20680344101197
 21
 460.35246432810038
  0
ARC
  8
85
  6
CONTINUOUS
 62
     4
 10
-190.48854744101186
 20
 534.9190503281003
 40
 3.0000119999999999
 50
 75.000002482817152
 51
 160.00000197352131
  0
LINE
  8
85
  6
CONTINUOUS
 62
     4
 10
-193.30762044101152
 20
 535.94511432810043
 11
-216.82629144101224
 21
 471.32804432810048
  0
LINE
  8
85
  6
CONTINUOUS
 62
     4
 10
-166.29962444101216
 20
 531.54342732810039
 11
-189.71212344101218
 21
 537.81678832810042
  0
ARC
  8
85
  6
CONTINUOUS
 62
     4
 10
-174.50450144101228
 20
 444.7081943281006
 40
 3.0000119999999999
 50
-104.99999964741629
 51
-15.000001366289721
  0
LINE
  8
85
  6
CONTINUOUS
 62
     4
 10
-175.2809694410123
 20
 441.81041132810049
 11
-223.0270554410115
 21
 454.60393832810053
  0
LINE
  8
85
  6
CONTINUOUS
 62
     4
 10
-165.24202344101172
 20
 467.68519732810057
 11
-171.60671844101194
 21
 443.93172532810047
  0
ARC
  8
85
  6
CONTINUOUS
 62
     4
 10
-153.02254244101164
 20
 524.88001532810051
 40
 3.0000119999999999
 50
-15.000015117277009
 51
 75.000009358310805
  0
LINE
  8
85
  6
CONTINUOUS
 62
     4
 10
-152.24607444101161
 20
 527.7777983281004
 11
-159.90489844101171
 21
 529.82996932810045
  0
LINE
  8
85
  6
CONTINUOUS
 62
     4
 10
-152.75195244101155
 20
 538.35460232810044
 11
-152.75084544101151
 21
 538.35588732810049
  0
ARC
  8
85
  6
CONTINUOUS
 62
     4
 10
-156.45889244101159
 20
 540.15970432810047
 40
 1.999994
 50
 49.999989623097527
 51
 140.00000165521141
  0
LINE
  8
85
  6
CONTINUOUS
 62
     4
 10
-157.99101144101201
 20
 541.44528432810046
 11
-190.93405344101188
 21
 502.18520732810038
  0
ARC
  8
85
  6
CONTINUOUS
 62
     4
 10
-154.92681744101151
 20
 538.87412332810038
 40
 1.999994
 50
-40.000000475022034
 51
 49.999981601688219
  0
LINE
  8
85
  6
CONTINUOUS
 62
     4
 10
-155.17331244101183
 20
 541.69177832810044
 11
-153.64123744101175
 21
 540.40619832810046
  0
LINE
  8
85
  6
CONTINUOUS
 62
     4
 10
-183.10164244101156
 20
 502.18520732810038
 11
-153.394698441012
 21
 537.5885433281004
  0
ARC
  8
85
  6
CONTINUOUS
 62
     4
 10
-227.63293544101157
 20
 455.33779632810058
 40
 1.999994
 50
 140.00000337408483
 51
-130.00000505868448
  0
LINE
  8
85
  6
CONTINUOUS
 62
     4
 10
-229.16501044101165
 20
 456.62337732810045
 11
-191.40281344101163
 21
 501.62657532810056
  0
ARC
  8
85
  6
CONTINUOUS
 62
     4
 10
-226.10086044101149
 20
 454.05217232810048
 40
 1.999994
 50
-129.99998443220349
 51
-40.000000475022034
  0
LINE
  8
85
  6
CONTINUOUS
 62
     4
 10
-224.56878644101175
 20
 452.76663632810039
 11
-191.40281344101163
 21
 492.29225332810034
  0
LINE
  8
85
  6
CONTINUOUS
 62
     4
 10
-227.38639744101215
 20
 452.52009732810041
 11
-228.91851644101166
 21
 453.80567732810061
  0
LINE
  8
85
  6
CENTER
 62
     7
 10
-194.22985944101197
 20
 456.13867132810049
 11
-199.77441244101169
 21
 435.44615932810041
  0
LINE
  8
85
  6
CENTER
 62
     7
 10
-141.90283044101193
 20
 408.27321432810061
 11
-141.90283044101193
 21
 361.27223732810046
  0
LINE
  8
85
  6
CENTER
 62
     7
 10
-136.90282444101172
 20
 394.48622332810044
 11
-136.90282444101172
 21
 281.05762732810052
  0
LINE
  8
85
  6
CENTER
 62
     7
 10
 8.0971695589880781
 20
 408.27321432810061
 11
 8.0971695589880781
 21
 360.64521532810033
  0
LINE
  8
85
  6
CENTER
 62
     7
 10
 3.0971635589878659
 20
 393.23319932810057
 11
 3.0971635589878659
 21
 280.43100432810041
  0
ARC
  8
85
  6
CONTINUOUS
 62
     4
 10
 26.542263558987777
 20
 502.18520732810038
 40
 6.9999989999999999
 50
-90.000001557275667
 51
-2.4167719558308205
  0
LINE
  8
85
  6
CONTINUOUS
 62
     4
 10
 34.097174558987952
 20
 515.18523132810049
 11
 33.536017558987858
 21
 501.89003432810034
  0
LINE
  8
85
  6
CONTINUOUS
 62
     4
 10
 26.542263558987777
 20
 495.18520832810043
 11
 4.0971825589879316
 21
 495.18520832810043
  0
LINE
  8
85
  6
CENTER
 62
     7
 10
-36.563859441011793
 20
 502.68519432810047
 11
-16.902815441012301
 21
 502.68519432810047
  0
LINE
  8
85
  6
CENTER
 62
     7
 10
-26.902827441011816
 20
 494.11223732810055
 11
-26.902827441011816
 21
 512.68520632810043
  0
LINE
  8
85
  6
CENTER
 62
     7
 10
-116.56382144101165
 20
 502.68519432810047
 11
-96.902821441011611
 21
 502.68519432810047
  0
LINE
  8
85
  6
CENTER
 62
     7
 10
-106.90283344101204
 20
 494.11223732810055
 11
-106.90283344101204
 21
 512.68520632810043
  0
LINE
  8
85
  6
CENTER
 62
     7
 10
-116.56382144101165
 20
 432.68520032810045
 11
-96.902821441011611
 21
 432.68520032810045
  0
LINE
  8
85
  6
CENTER
 62
     7
 10
-106.90283344101204
 20
 424.11219832810059
 11
-106.90283344101204
 21
 442.68521232810042
  0
LINE
  8
85
  6
CENTER
 62
     7
 10
-36.563859441011793
 20
 432.68520032810045
 11
-16.902815441012301
 21
 432.68520032810045
  0
LINE
  8
85
  6
CENTER
 62
     7
 10
-26.902827441011816
 20
 424.11219832810059
 11
-26.902827441011816
 21
 442.68521232810042
  0
LINE
  8
85
  6
CONTINUOUS
 62
     4
 10
 44.097185558988038
 20
 427.68519432810047
 11
 44.097185558988038
 21
 515.18523132810049
  0
LINE
  8
85
  6
CONTINUOUS
 62
     4
 10
 131.0971475589879
 20
 515.18523132810049
 11
 131.0971475589879
 21
 427.68519432810047
  0
LINE
  8
85
  6
CONTINUOUS
 62
     4
 10
 184.59716155898809
 20
 440.18523132810026
 11
 184.59716155898809
 21
 395.18519732810068
  0
LINE
  8
85
  6
CONTINUOUS
 62
     4
 10
 201.59717355898761
 20
 395.18519732810068
 11
 201.59717355898761
 21
 440.18523132810026
  0
LINE
  8
85
  6
CONTINUOUS
 62
     4
 10
 184.59716155898809
 20
 540.18519732810068
 11
 184.59716155898809
 21
 495.18520832810043
  0
LINE
  8
85
  6
CONTINUOUS
 62
     4
 10
 201.59717355898761
 20
 495.18520832810043
 11
 201.59717355898761
 21
 540.18519732810068
  0
LINE
  8
85
  6
CENTER
 62
     7
 10
 193.0971675589883
 20
 269.11520432810056
 11
 193.0971675589883
 21
 628.54521632810031
  0
ARC
  8
85
  6
CONTINUOUS
 62
     4
 10
 112.09718655898837
 20
 442.68521232810042
 40
 7.9999739999999999
 50
 0
 51
 90.000001718873406
  0
LINE
  8
85
  6
CONTINUOUS
 62
     4
 10
 55.097172558988184
 20
 448.80221632810037
 11
 55.097172558988184
 21
 427.68519432810047
  0
LINE
  8
85
  6
CONTINUOUS
 62
     4
 10
 120.09716055898775
 20
 427.68519432810047
 11
 120.09716055898775
 21
 442.68521232810042
  0
LINE
  8
85
  6
CONTINUOUS
 62
     4
 10
-116.90284544101156
 20
 415.18524632810033
 11
-16.902815441012301
 21
 415.18524632810033
  0
LINE
  8
85
  6
CONTINUOUS
 62
     4
 10
-116.90284544101156
 20
 415.18524632810033
 11
-116.90284544101156
 21
 387.68519132810036
  0
LINE
  8
85
  6
CONTINUOUS
 62
     4
 10
 23.097187558987805
 20
 399.68524132810046
 11
 23.097187558987805
 21
 387.68519132810036
  0
LINE
  8
85
  6
CONTINUOUS
 62
     4
 10
-1.902841441012008
 20
 399.68524132810046
 11
 23.097187558987805
 21
 399.68524132810046
  0
LINE
  8
85
  6
CONTINUOUS
 62
     4
 10
-23.438727441011757
 20
 432.68520032810045
 11
-25.170777441011744
 21
 435.68519892935012
  0
LINE
  8
85
  6
CONTINUOUS
 62
     4
 10
-25.170777441011744
 20
 435.68519892935012
 11
-28.634877441011746
 21
 435.68519892935012
  0
LINE
  8
85
  6
CONTINUOUS
 62
     4
 10
-28.634877441011746
 20
 435.68519892935012
 11
-30.366927441011732
 21
 432.68520032810045
  0
LINE
  8
85
  6
CONTINUOUS
 62
     4
 10
-30.366927441011732
 20
 432.68520032810045
 11
-28.634877441011746
 21
 429.68520172685078
  0
LINE
  8
85
  6
CONTINUOUS
 62
     4
 10
-28.634877441011746
 20
 429.68520172685078
 11
-25.170777441011744
 21
 429.68520172685078
  0
LINE
  8
85
  6
CONTINUOUS
 62
     4
 10
-25.170777441011744
 20
 429.68520172685078
 11
-23.438727441011757
 21
 432.68520032810045
  0
CIRCLE
  8
85
  6
CONTINUOUS
 62
     4
 10
-26.902827441011759
 20
 432.68520032810045
 40
 6.5
  0
CIRCLE
  8
85
  6
CONTINUOUS
 62
     4
 10
-26.902827441011759
 20
 432.68520032810045
 40
 5.6339741924309337
  0
LINE
  8
85
  6
CONTINUOUS
 62
     4
 10
-23.4387274410117
 20
 502.68519432810064
 11
-25.170777441011687
 21
 505.68519292935036
  0
LINE
  8
85
  6
CONTINUOUS
 62
     4
 10
-25.170777441011687
 20
 505.68519292935036
 11
-28.634877441011689
 21
 505.68519292935036
  0
LINE
  8
85
  6
CONTINUOUS
 62
     4
 10
-28.634877441011689
 20
 505.68519292935036
 11
-30.366927441011672
 21
 502.68519432810064
  0
LINE
  8
85
  6
CONTINUOUS
 62
     4
 10
-30.366927441011672
 20
 502.68519432810064
 11
-28.634877441011689
 21
 499.68519572685096
  0
LINE
  8
85
  6
CONTINUOUS
 62
     4
 10
-28.634877441011689
 20
 499.68519572685096
 11
-25.170777441011687
 21
 499.68519572685096
  0
LINE
  8
85
  6
CONTINUOUS
 62
     4
 10
-25.170777441011687
 20
 499.68519572685096
 11
-23.4387274410117
 21
 502.68519432810064
  0
CIRCLE
  8
85
  6
CONTINUOUS
 62
     4
 10
-26.902827441011702
 20
 502.68519432810064
 40
 6.5
  0
CIRCLE
  8
85
  6
CONTINUOUS
 62
     4
 10
-26.902827441011702
 20
 502.68519432810064
 40
 5.6339741924309337
  0
LINE
  8
85
  6
CONTINUOUS
 62
     4
 10
-103.43873344101189
 20
 502.68519432810064
 11
-105.17078344101191
 21
 505.68519292935036
  0
LINE
  8
85
  6
CONTINUOUS
 62
     4
 10
-105.17078344101191
 20
 505.68519292935036
 11
-108.63488344101188
 21
 505.68519292935036
  0
LINE
  8
85
  6
CONTINUOUS
 62
     4
 10
-108.63488344101188
 20
 505.68519292935036
 11
-110.36693344101189
 21
 502.68519432810064
  0
LINE
  8
85
  6
CONTINUOUS
 62
     4
 10
-110.36693344101189
 20
 502.68519432810064
 11
-108.63488344101188
 21
 499.68519572685096
  0
LINE
  8
85
  6
CONTINUOUS
 62
     4
 10
-108.63488344101188
 20
 499.68519572685096
 11
-105.17078344101191
 21
 499.68519572685096
  0
LINE
  8
85
  6
CONTINUOUS
 62
     4
 10
-105.17078344101191
 20
 499.68519572685096
 11
-103.43873344101189
 21
 502.68519432810064
  0
CIRCLE
  8
85
  6
CONTINUOUS
 62
     4
 10
-106.90283344101192
 20
 502.68519432810064
 40
 6.5
  0
CIRCLE
  8
85
  6
CONTINUOUS
 62
     4
 10
-106.90283344101192
 20
 502.68519432810064
 40
 5.6339741924309337
  0
LINE
  8
85
  6
CONTINUOUS
 62
     4
 10
-103.43873344101223
 20
 432.68520032810034
 11
-105.17078344101219
 21
 435.68519892935001
  0
LINE
  8
85
  6
CONTINUOUS
 62
     4
 10
-105.17078344101219
 20
 435.68519892935001
 11
-108.63488344101222
 21
 435.68519892935001
  0
LINE
  8
85
  6
CONTINUOUS
 62
     4
 10
-108.63488344101222
 20
 435.68519892935001
 11
-110.36693344101218
 21
 432.68520032810034
  0
LINE
  8
85
  6
CONTINUOUS
 62
     4
 10
-110.36693344101218
 20
 432.68520032810034
 11
-108.63488344101222
 21
 429.68520172685066
  0
LINE
  8
85
  6
CONTINUOUS
 62
     4
 10
-108.63488344101222
 20
 429.68520172685066
 11
-105.17078344101219
 21
 429.68520172685066
  0
LINE
  8
85
  6
CONTINUOUS
 62
     4
 10
-105.17078344101219
 20
 429.68520172685066
 11
-103.43873344101223
 21
 432.68520032810034
  0
CIRCLE
  8
85
  6
CONTINUOUS
 62
     4
 10
-106.90283344101221
 20
 432.68520032810034
 40
 6.5
  0
CIRCLE
  8
85
  6
CONTINUOUS
 62
     4
 10
-106.90283344101221
 20
 432.68520032810034
 40
 5.6339741924309337
  0
LINE
  8
85
  6
CONTINUOUS
 62
     4
 10
 184.59716155898809
 20
 540.18519732810068
 11
 201.59717355898761
 21
 540.18519732810068
  0
LINE
  8
85
  6
CONTINUOUS
 62
     4
 10
 184.59716155898809
 20
 530.18519732810068
 11
 201.59717355898761
 21
 530.18519732810068
  0
LINE
  8
85
  6
CONTINUOUS
 62
     4
 10
 184.59716155898809
 20
 530.18519732810068
 11
 187.09716155898809
 21
 540.18519732810068
  0
LINE
  8
85
  6
CONTINUOUS
 62
     4
 10
 201.59717355898883
 20
 530.18519732810068
 11
 199.09717355898886
 21
 540.18519732810068
  0
LINE
  8
85
  6
CONTINUOUS
 62
     4
 10
 184.59716155898809
 20
 395.18519732810046
 11
 201.59717355898761
 21
 395.18519732810046
  0
LINE
  8
85
  6
CONTINUOUS
 62
     4
 10
 184.59716155898809
 20
 405.18519732810046
 11
 201.59717355898761
 21
 405.18519732810046
  0
LINE
  8
85
  6
CONTINUOUS
 62
     4
 10
 184.59716155898809
 20
 405.18519732810046
 11
 187.09716155898809
 21
 395.18519732810046
  0
LINE
  8
85
  6
CONTINUOUS
 62
     4
 10
 201.59717355898883
 20
 405.18519732810046
 11
 199.09717355898886
 21
 395.18519732810046
  0
LINE
  8
85
  6
CONTINUOUS
 62
     4
 10
-131.90281844101153
 20
 443.68524032810012
 11
-136.90286844101141
 21
 443.68524032810012
  0
LINE
  8
85
  6
CONTINUOUS
 62
     4
 10
-136.90286844101141
 20
 443.68524032810012
 11
-136.90286844101138
 21
 415.6852423281008
  0
LINE
  8
85
  6
CONTINUOUS
 62
     4
 10
-136.90286844101138
 20
 415.6852423281008
 11
-131.9028184410115
 21
 415.6852423281008
  0
LINE
  8
5
  6
CONTINUOUS
 62
     4
 10
-136.90286844101152
 20
 438.33524132810055
 11
-144.87521867142632
 21
 438.33524132810055
  0
LINE
  8
5
  6
CONTINUOUS
 62
     4
 10
-136.90286844101152
 20
 421.0352413281006
 11
-144.87521867142632
 21
 421.03524132810054
  0
LINE
  8
5
  6
CONTINUOUS
 62
     4
 10
-144.87521867142632
 20
 421.03524132810054
 11
-144.87521867142632
 21
 438.33524132810055
  0
LINE
  8
5
  6
CONTINUOUS
 62
     4
 10
-153.6448039248825
 20
 422.51012612072708
 11
-153.6448039248825
 21
 436.86035653547384
  0
LINE
  8
5
  6
CONTINUOUS
 62
     4
 10
-144.87521867142632
 20
 436.86035653547378
 11
-153.6448039248825
 21
 436.86035653547384
  0
LINE
  8
5
  6
CONTINUOUS
 62
     4
 10
-144.87521867142632
 20
 422.51012612072725
 11
-153.6448039248825
 21
 422.51012612072708
  0
LINE
  8
5
  6
CONTINUOUS
 62
     4
 10
-142.48351360230188
 20
 421.03524132810054
 11
-142.48351360230188
 21
 438.33524132810055
  0
LINE
  8
5
  6
CONTINUOUS
 62
     4
 10
-140.09180853317744
 20
 421.03524132810054
 11
-140.09180853317744
 21
 438.33524132810055
  0
LINE
  8
85
  6
CENTER
 62
     7
 10
-159.80007623953492
 20
 429.68524132810046
 11
-125.18440109013586
 21
 429.68524132810046
  0
POINT
  8
85
  6
CONTINUOUS
 62
     7
 10
-287.50002400000085
 20
-241.50002499999999
  0
LINE
  8
85
  6
CENTER
 62
     7
 10
-128.00004199999944
 20
-11.500018000000182
 11
-79.860008999999991
 21
-11.500018000000182
  0
LINE
  8
85
  6
CENTER
 62
     7
 10
-128.00004199999944
 20
-131.50002700000005
 11
-79.860008999999991
 21
-131.50002700000005
  0
LINE
  8
85
  6
CENTER
 62
     7
 10
 107.49995800000033
 20
-129.540031
 11
 107.49995800000033
 21
-166.91740400000003
  0
LINE
  8
85
  6
CENTER
 62
     7
 10
 194.49996300000021
 20
-130.31999900000005
 11
 194.49996300000021
 21
-166.91740400000003
  0
LINE
  8
85
  6
CENTER
 62
     7
 10
 36.499988999999914
 20
-141.28999799999997
 11
 36.499988999999914
 21
-175.22801000000004
  0
LINE
  8
85
  6
CENTER
 62
     7
 10
 150.9999600000001
 20
-171.52102500000001
 11
 150.9999600000001
 21
 3.5575819999999112
  0
LINE
  8
85
  6
CENTER
 62
     7
 10
 267.53996699999971
 20
-84.500025000000051
 11
-129.91999699999974
 21
-84.500025000000051
  0
LINE
  8
85
  6
CENTER
 62
     7
 10
-145.00005399999986
 20
-71.5
 11
-282.79000900000028
 21
-71.500000000000085
  0
LINE
  8
85
  6
CENTER
 62
     7
 10
-267.50004500000068
 20
-132.4515440000001
 11
-267.50004500000068
 21
-309.29505611443813
  0
LINE
  8
85
  6
CENTER
 62
     7
 10
 252.49999600000046
 20
-132.45154400000001
 11
 252.49999600000046
 21
-309.29505611443807
  0
LINE
  8
85
  6
CENTER
 62
     7
 10
-197.50004899999999
 20
-285.83301499999993
 11
-197.50004899999999
 21
 64.544959999999946
  0
LINE
  8
85
  6
CONTINUOUS
 62
     4
 10
-242.50001399999994
 20
-33.500035000000025
 11
-242.50001399999994
 21
-109.50000999999997
  0
ARC
  8
85
  6
CONTINUOUS
 62
     4
 10
-235.50001499999939
 20
-33.500035000000025
 40
 6.9999989999999999
 50
 90.000001718873406
 51
 180.00000286478902
  0
ARC
  8
85
  6
CONTINUOUS
 62
     4
 10
-235.50001499999939
 20
-109.50000999999997
 40
 6.9999989999999999
 50
 180.00000286478902
 51
-90.000001557275667
  0
ARC
  8
85
  6
CONTINUOUS
 62
     4
 10
-159.50003999999967
 20
-109.50000999999997
 40
 6.9999989999999999
 50
-90.000001557275667
 51
-0.000000000000014
  0
LINE
  8
85
  6
CONTINUOUS
 62
     4
 10
-152.50003999999967
 20
-33.500035000000025
 11
-152.50003999999967
 21
-109.50000999999997
  0
ARC
  8
85
  6
CONTINUOUS
 62
     4
 10
-159.50003999999967
 20
-33.500035000000025
 40
 6.9999989999999999
 50
 0
 51
 90.000001718873406
  0
ARC
  8
85
  6
CONTINUOUS
 62
     4
 10
-248.0000520000001
 20
-19.500035999999909
 40
 1.000019
 50
 90.000001718873406
 51
 180.00000286478902
  0
LINE
  8
85
  6
CONTINUOUS
 62
     4
 10
-248.0000520000001
 20
-18.500017000000071
 11
-206.0000550000002
 21
-18.500017000000071
  0
LINE
  8
85
  6
CONTINUOUS
 62
     4
 10
-249.00002599999948
 20
-24.500042000000121
 11
-249.00002599999948
 21
-19.500035999999909
  0
ARC
  8
85
  6
CONTINUOUS
 62
     4
 10
-147.00004699999931
 20
-19.500035999999909
 40
 1.000019
 50
 0
 51
 90.000001718873406
  0
LINE
  8
85
  6
CONTINUOUS
 62
     4
 10
-189.00004300000066
 20
-18.500017000000071
 11
-147.00004699999931
 21
-18.500017000000071
  0
LINE
  8
85
  6
CONTINUOUS
 62
     4
 10
-146.00002799999925
 20
-19.500035999999909
 11
-146.00002799999925
 21
-24.500042000000121
  0
LINE
  8
85
  6
CONTINUOUS
 62
     4
 10
-189.00004300000066
 20
-24.500042000000121
 11
-128.00004199999944
 21
-24.500042000000121
  0
LINE
  8
85
  6
CONTINUOUS
 62
     4
 10
-125.00002999999992
 20
-22.000017000000071
 11
-128.00004199999944
 21
-24.500042000000121
  0
LINE
  8
85
  6
CONTINUOUS
 62
     4
 10
-145.00005399999986
 20
-118.500047
 11
-128.00004199999944
 21
-118.500047
  0
LINE
  8
85
  6
CONTINUOUS
 62
     4
 10
-128.00004199999944
 20
-118.500047
 11
-125.00002999999992
 21
-121.00002799999993
  0
LINE
  8
85
  6
CONTINUOUS
 62
     4
 10
-100
 20
 0
 11
-100
 21
-143.00000099999988
  0
LINE
  8
85
  6
CONTINUOUS
 62
     4
 10
-94.000019999999495
 20
-3.0000119999999697
 11
-86.000046000000111
 21
-3.0000119999999697
  0
LINE
  8
85
  6
CONTINUOUS
 62
     4
 10
-92.000025999999707
 20
-3.0000119999999697
 11
-92.000025999999707
 21
-20.000023000000056
  0
LINE
  8
85
  6
CONTINUOUS
 62
     4
 10
-86.000046000000111
 20
-3.0000119999999697
 11
-85.736941000000115
 21
-3.4906089999999494
  0
LINE
  8
85
  6
CONTINUOUS
 62
     4
 10
-85.736941000000115
 20
-3.4906089999999494
 11
-85.520344999999907
 21
-4.002777000000151
  0
LINE
  8
85
  6
CONTINUOUS
 62
     4
 10
-85.520344999999907
 20
-4.002777000000151
 11
-85.346714000000247
 21
-4.5315110000001368
  0
LINE
  8
85
  6
CONTINUOUS
 62
     4
 10
-85.346714000000247
 20
-4.5315110000001368
 11
-85.212547999999515
 21
-5.0718940000001567
  0
LINE
  8
85
  6
CONTINUOUS
 62
     4
 10
-85.212547999999515
 20
-5.0718940000001567
 11
-85.114305000000058
 21
-5.6189210000000003
  0
LINE
  8
85
  6
CONTINUOUS
 62
     4
 10
-85.114305000000058
 20
-5.6189210000000003
 11
-85.048439999999573
 21
-6.1675880000000234
  0
LINE
  8
85
  6
CONTINUOUS
 62
     4
 10
-85.048439999999573
 20
-6.1675880000000234
 11
-85.011542999999619
 21
-6.712976000000026
  0
LINE
  8
85
  6
CONTINUOUS
 62
     4
 10
-85.011542999999619
 20
-6.712976000000026
 11
-85.000027000000046
 21
-7.2500370000000212
  0
LINE
  8
85
  6
CONTINUOUS
 62
     4
 10
-85.000027000000046
 20
-7.2500370000000212
 11
-85.011542999999619
 21
-7.7870980000000145
  0
LINE
  8
85
  6
CONTINUOUS
 62
     4
 10
-85.011542999999619
 20
-7.7870980000000145
 11
-85.048439999999573
 21
-8.3324419999999009
  0
LINE
  8
85
  6
CONTINUOUS
 62
     4
 10
-85.048439999999573
 20
-8.3324419999999009
 11
-85.114305000000058
 21
-8.8811080000000402
  0
LINE
  8
85
  6
CONTINUOUS
 62
     4
 10
-85.114305000000058
 20
-8.8811080000000402
 11
-85.212547999999515
 21
-9.428135999999995
  0
LINE
  8
85
  6
CONTINUOUS
 62
     4
 10
-85.212547999999515
 20
-9.428135999999995
 11
-85.346714000000247
 21
-9.9685190000000148
  0
LINE
  8
85
  6
CONTINUOUS
 62
     4
 10
-85.346714000000247
 20
-9.9685190000000148
 11
-85.520344999999907
 21
-10.49729699999989
  0
LINE
  8
85
  6
CONTINUOUS
 62
     4
 10
-85.520344999999907
 20
-10.49729699999989
 11
-85.736941000000115
 21
-11.009465000000091
  0
LINE
  8
85
  6
CONTINUOUS
 62
     4
 10
-85.736941000000115
 20
-11.009465000000091
 11
-86.000046000000111
 21
-11.500018000000182
  0
LINE
  8
85
  6
CONTINUOUS
 62
     4
 10
-86.000046000000111
 20
-11.500018000000182
 11
-85.736941000000115
 21
-11.990615000000162
  0
LINE
  8
85
  6
CONTINUOUS
 62
     4
 10
-85.736941000000115
 20
-11.990615000000162
 11
-85.520344999999907
 21
-12.50273900000002
  0
LINE
  8
85
  6
CONTINUOUS
 62
     4
 10
-85.520344999999907
 20
-12.50273900000002
 11
-85.346714000000247
 21
-13.031516999999894
  0
LINE
  8
85
  6
CONTINUOUS
 62
     4
 10
-85.346714000000247
 20
-13.031516999999894
 11
-85.212547999999515
 21
-13.571899999999914
  0
LINE
  8
85
  6
CONTINUOUS
 62
     4
 10
-85.212547999999515
 20
-13.571899999999914
 11
-85.114305000000058
 21
-14.118926999999985
  0
LINE
  8
85
  6
CONTINUOUS
 62
     4
 10
-85.114305000000058
 20
-14.118926999999985
 11
-85.048439999999573
 21
-14.667593000000124
  0
LINE
  8
85
  6
CONTINUOUS
 62
     4
 10
-85.048439999999573
 20
-14.667593000000124
 11
-85.011542999999619
 21
-15.212982000000009
  0
LINE
  8
85
  6
CONTINUOUS
 62
     4
 10
-85.011542999999619
 20
-15.212982000000009
 11
-85.000027000000046
 21
-15.749998000000007
  0
LINE
  8
85
  6
CONTINUOUS
 62
     4
 10
-85.000027000000046
 20
-15.749998000000007
 11
-85.011542999999619
 21
-16.28706000000011
  0
LINE
  8
85
  6
CONTINUOUS
 62
     4
 10
-85.011542999999619
 20
-16.28706000000011
 11
-85.048439999999573
 21
-16.832448000000113
  0
LINE
  8
85
  6
CONTINUOUS
 62
     4
 10
-85.048439999999573
 20
-16.832448000000113
 11
-85.114305000000058
 21
-17.381114000000025
  0
LINE
  8
85
  6
CONTINUOUS
 62
     4
 10
-85.114305000000058
 20
-17.381114000000025
 11
-85.212547999999515
 21
-17.928140999999869
  0
LINE
  8
85
  6
CONTINUOUS
 62
     4
 10
-85.212547999999515
 20
-17.928140999999869
 11
-85.346714000000247
 21
-18.468523999999888
  0
LINE
  8
85
  6
CONTINUOUS
 62
     4
 10
-85.346714000000247
 20
-18.468523999999888
 11
-85.520344999999907
 21
-18.997303000000102
  0
LINE
  8
85
  6
CONTINUOUS
 62
     4
 10
-85.520344999999907
 20
-18.997303000000102
 11
-85.736941000000115
 21
-19.509426000000076
  0
LINE
  8
85
  6
CONTINUOUS
 62
     4
 10
-85.736941000000115
 20
-19.509426000000076
 11
-86.000046000000111
 21
-20.000023000000056
  0
LINE
  8
85
  6
CONTINUOUS
 62
     4
 10
-94.000019999999495
 20
-20.000023000000056
 11
-86.000046000000111
 21
-20.000023000000056
  0
LINE
  8
85
  6
CONTINUOUS
 62
     4
 10
-85.000027000000046
 20
-7.2500370000000212
 11
-85.000027000000046
 21
-15.749998000000007
  0
LINE
  8
85
  6
CONTINUOUS
 62
     4
 10
-94.000019999999495
 20
-123.00002100000005
 11
-86.000046000000111
 21
-123.00002100000005
  0
LINE
  8
85
  6
CONTINUOUS
 62
     4
 10
-92.000025999999707
 20
-123.00002100000005
 11
-92.000025999999707
 21
-140.00003300000003
  0
LINE
  8
85
  6
CONTINUOUS
 62
     4
 10
-94.000019999999495
 20
-140.00003300000003
 11
-86.000046000000111
 21
-140.00003300000003
  0
LINE
  8
85
  6
CONTINUOUS
 62
     4
 10
-86.000046000000111
 20
-123.00002100000005
 11
-85.736941000000115
 21
-123.49057399999992
  0
LINE
  8
85
  6
CONTINUOUS
 62
     4
 10
-85.736941000000115
 20
-123.49057399999992
 11
-85.520344999999907
 21
-124.00274200000013
  0
LINE
  8
85
  6
CONTINUOUS
 62
     4
 10
-85.520344999999907
 20
-124.00274200000013
 11
-85.346714000000247
 21
-124.53152
  0
LINE
  8
85
  6
CONTINUOUS
 62
     4
 10
-85.346714000000247
 20
-124.53152
 11
-85.212547999999515
 21
-125.0719039999999
  0
LINE
  8
85
  6
CONTINUOUS
 62
     4
 10
-85.212547999999515
 20
-125.0719039999999
 11
-85.114305000000058
 21
-125.61893099999998
  0
LINE
  8
85
  6
CONTINUOUS
 62
     4
 10
-85.114305000000058
 20
-125.61893099999998
 11
-85.048439999999573
 21
-126.1675970000001
  0
LINE
  8
85
  6
CONTINUOUS
 62
     4
 10
-85.048439999999573
 20
-126.1675970000001
 11
-85.011542999999619
 21
-126.712941
  0
LINE
  8
85
  6
CONTINUOUS
 62
     4
 10
-85.011542999999619
 20
-126.712941
 11
-85.000027000000046
 21
-127.25000199999999
  0
LINE
  8
85
  6
CONTINUOUS
 62
     4
 10
-85.000027000000046
 20
-127.25000199999999
 11
-85.011542999999619
 21
-127.787063
  0
LINE
  8
85
  6
CONTINUOUS
 62
     4
 10
-85.011542999999619
 20
-127.787063
 11
-85.048439999999573
 21
-128.3324520000001
  0
LINE
  8
85
  6
CONTINUOUS
 62
     4
 10
-85.048439999999573
 20
-128.3324520000001
 11
-85.114305000000058
 21
-128.88111800000001
  0
LINE
  8
85
  6
CONTINUOUS
 62
     4
 10
-85.114305000000058
 20
-128.88111800000001
 11
-85.212547999999515
 21
-129.42814500000009
  0
LINE
  8
85
  6
CONTINUOUS
 62
     4
 10
-85.212547999999515
 20
-129.42814500000009
 11
-85.346714000000247
 21
-129.96852799999988
  0
LINE
  8
85
  6
CONTINUOUS
 62
     4
 10
-85.346714000000247
 20
-129.96852799999988
 11
-85.520344999999907
 21
-130.49726200000009
  0
LINE
  8
85
  6
CONTINUOUS
 62
     4
 10
-85.520344999999907
 20
-130.49726200000009
 11
-85.736941000000115
 21
-131.00943000000007
  0
LINE
  8
85
  6
CONTINUOUS
 62
     4
 10
-85.736941000000115
 20
-131.00943000000007
 11
-86.000046000000111
 21
-131.50002700000005
  0
LINE
  8
85
  6
CONTINUOUS
 62
     4
 10
-85.000027000000046
 20
-127.25000199999999
 11
-85.000027000000046
 21
-135.75000799999998
  0
LINE
  8
85
  6
CONTINUOUS
 62
     4
 10
-86.000046000000111
 20
-131.50002700000005
 11
-85.736941000000115
 21
-131.99062400000003
  0
LINE
  8
85
  6
CONTINUOUS
 62
     4
 10
-85.736941000000115
 20
-131.99062400000003
 11
-85.520344999999907
 21
-132.50274799999988
  0
LINE
  8
85
  6
CONTINUOUS
 62
     4
 10
-85.520344999999907
 20
-132.50274799999988
 11
-85.346714000000247
 21
-133.03152599999999
  0
LINE
  8
85
  6
CONTINUOUS
 62
     4
 10
-85.346714000000247
 20
-133.03152599999999
 11
-85.212547999999515
 21
-133.57190900000001
  0
LINE
  8
85
  6
CONTINUOUS
 62
     4
 10
-85.212547999999515
 20
-133.57190900000001
 11
-85.114305000000058
 21
-134.11889199999996
  0
LINE
  8
85
  6
CONTINUOUS
 62
     4
 10
-85.114305000000058
 20
-134.11889199999996
 11
-85.048439999999573
 21
-134.66760299999987
  0
LINE
  8
85
  6
CONTINUOUS
 62
     4
 10
-85.048439999999573
 20
-134.66760299999987
 11
-85.011542999999619
 21
-135.21294699999999
  0
LINE
  8
85
  6
CONTINUOUS
 62
     4
 10
-85.011542999999619
 20
-135.21294699999999
 11
-85.000027000000046
 21
-135.75000799999998
  0
LINE
  8
85
  6
CONTINUOUS
 62
     4
 10
-85.000027000000046
 20
-135.75000799999998
 11
-85.011542999999619
 21
-136.28706899999997
  0
LINE
  8
85
  6
CONTINUOUS
 62
     4
 10
-85.011542999999619
 20
-136.28706899999997
 11
-85.048439999999573
 21
-136.83241300000009
  0
LINE
  8
85
  6
CONTINUOUS
 62
     4
 10
-85.048439999999573
 20
-136.83241300000009
 11
-85.114305000000058
 21
-137.38112300000012
  0
LINE
  8
85
  6
CONTINUOUS
 62
     4
 10
-85.114305000000058
 20
-137.38112300000012
 11
-85.212547999999515
 21
-137.92815100000007
  0
LINE
  8
85
  6
CONTINUOUS
 62
     4
 10
-85.212547999999515
 20
-137.92815100000007
 11
-85.346714000000247
 21
-138.46853400000009
  0
LINE
  8
85
  6
CONTINUOUS
 62
     4
 10
-85.346714000000247
 20
-138.46853400000009
 11
-85.520344999999907
 21
-138.99731199999997
  0
LINE
  8
85
  6
CONTINUOUS
 62
     4
 10
-85.520344999999907
 20
-138.99731199999997
 11
-85.736941000000115
 21
-139.50943600000005
  0
LINE
  8
85
  6
CONTINUOUS
 62
     4
 10
-85.736941000000115
 20
-139.50943600000005
 11
-86.000046000000111
 21
-140.00003300000003
  0
LINE
  8
85
  6
CONTINUOUS
 62
     4
 10
-85.135653999999704
 20
-137.50000799999998
 11
-54.000017000000298
 21
-137.50000799999998
  0
LINE
  8
85
  6
CONTINUOUS
 62
     4
 10
-54.000017000000298
 20
-29.500047999999879
 11
-54.000017000000298
 21
-139.50000099999988
  0
LINE
  8
85
  6
CONTINUOUS
 62
     4
 10
-96.000012999999853
 20
-31.500041000000014
 11
-54.000017000000298
 21
-31.500041000000014
  0
LINE
  8
85
  6
CONTINUOUS
 62
     4
 10
-41.000036999999793
 20
-29.500047999999879
 11
-41.000036999999793
 21
-139.50000099999988
  0
LINE
  8
85
  6
CONTINUOUS
 62
     4
 10
-33.000017999999727
 20
-46.500015000000076
 11
-13.00003899999956
 21
-65.50001999999995
  0
LINE
  8
85
  6
CONTINUOUS
 62
     4
 10
-13.00003899999956
 20
-65.50001999999995
 11
-13.00003899999956
 21
-103.50002900000004
  0
LINE
  8
85
  6
CONTINUOUS
 62
     4
 10
-13.00003899999956
 20
-103.50002900000004
 11
-33.000017999999727
 21
-122.50003400000016
  0
LINE
  8
85
  6
CONTINUOUS
 62
     4
 10
-13.00003899999956
 20
-65.50001999999995
 11
-4.0000460000001112
 21
-65.50001999999995
  0
LINE
  8
85
  6
CONTINUOUS
 62
     4
 10
-4.0000460000001112
 20
-65.50001999999995
 11
-4.0000460000001112
 21
-103.50002900000004
  0
LINE
  8
85
  6
CONTINUOUS
 62
     4
 10
-4.0000460000001112
 20
-103.50002900000004
 11
-13.00003899999956
 21
-103.50002900000004
  0
LINE
  8
85
  6
CONTINUOUS
 62
     4
 10
 200.99997499999972
 20
-17.000011000000086
 11
 222.99994799999968
 21
-17.000011000000086
  0
LINE
  8
85
  6
CONTINUOUS
 62
     4
 10
 222.99994799999968
 20
-17.000011000000086
 11
 222.99994799999968
 21
-144.5000070000001
  0
LINE
  8
85
  6
CONTINUOUS
 62
     4
 10
 200.99997499999972
 20
-144.5000070000001
 11
 200.99997499999972
 21
-17.000011000000086
  0
LINE
  8
85
  6
CONTINUOUS
 62
     4
 10
 200.99997499999972
 20
-144.5000070000001
 11
 222.99994799999968
 21
-144.5000070000001
  0
LINE
  8
85
  6
CONTINUOUS
 62
     4
 10
 88.499996999999894
 20
-151.50000599999998
 11
 88.499996999999894
 21
-139.50000099999988
  0
LINE
  8
85
  6
CONTINUOUS
 62
     4
 10
 88.499996999999894
 20
-147.50001900000007
 11
 213.49996800000008
 21
-147.50001900000007
  0
LINE
  8
85
  6
CONTINUOUS
 62
     4
 10
 126.49996199999987
 20
-147.50001900000007
 11
 126.49996199999987
 21
-151.50000599999998
  0
LINE
  8
85
  6
CONTINUOUS
 62
     4
 10
 175.49995800000033
 20
-151.50000599999998
 11
 175.49995800000033
 21
-147.50001900000007
  0
LINE
  8
85
  6
CONTINUOUS
 62
     4
 10
 88.499996999999894
 20
-139.50000099999988
 11
 126.49996199999987
 21
-139.50000099999988
  0
LINE
  8
85
  6
CONTINUOUS
 62
     4
 10
 175.49995800000033
 20
-113.64931100000013
 11
 175.49995800000033
 21
-139.50000099999988
  0
LINE
  8
85
  6
CONTINUOUS
 62
     4
 10
 175.49995800000033
 20
-139.50000099999988
 11
 200.99997499999972
 21
-139.50000099999988
  0
LINE
  8
85
  6
CONTINUOUS
 62
     4
 10
 213.49996800000008
 20
-144.5000070000001
 11
 213.49996800000008
 21
-151.50000599999998
  0
LINE
  8
85
  6
CONTINUOUS
 62
     4
 10
-3.5000030000001061
 20
-151.50000599999998
 11
-3.5000030000001061
 21
-46.500015000000076
  0
LINE
  8
85
  6
CONTINUOUS
 62
     4
 10
-3.5000030000001061
 20
-46.500015000000076
 11
 76.499980000000505
 21
-46.500015000000076
  0
LINE
  8
85
  6
CONTINUOUS
 62
     4
 10
 76.499980000000505
 20
-46.500015000000076
 11
 76.499980000000505
 21
-151.50000599999998
  0
ARC
  8
85
  6
CONTINUOUS
 62
     4
 10
-95.00003899999956
 20
-81.000025000000051
 40
 1.000019
 50
 180.00000286478902
 51
-90.000001557275667
  0
LINE
  8
85
  6
CONTINUOUS
 62
     4
 10
-96.000012999999853
 20
-143.00000099999988
 11
-96.000012999999853
 21
 0
  0
LINE
  8
85
  6
CONTINUOUS
 62
     4
 10
-95.00003899999956
 20
-82.000043999999889
 11
-86.000046000000111
 21
-82.000043999999889
  0
ARC
  8
85
  6
CONTINUOUS
 62
     4
 10
-95.00003899999956
 20
-88.000023999999939
 40
 1.000019
 50
 90.000001718873406
 51
 180.00000286478902
  0
LINE
  8
85
  6
CONTINUOUS
 62
     4
 10
-95.00003899999956
 20
-87.000004999999874
 11
-86.000046000000111
 21
-87.000004999999874
  0
LINE
  8
85
  6
CONTINUOUS
 62
     4
 10
-250.00004499999955
 20
-24.500042000000121
 11
-250.00004499999955
 21
-141.0000070000001
  0
LINE
  8
85
  6
CONTINUOUS
 62
     4
 10
-145.00005399999986
 20
-24.500042000000121
 11
-145.00005399999986
 21
-151.50000599999998
  0
ARC
  8
85
  6
CONTINUOUS
 62
     4
 10
 249.99997100000022
 20
-28.574708000000101
 40
 1.999994
 50
 0
 51
 76.42956830239541
  0
LINE
  8
85
  6
CONTINUOUS
 62
     4
 10
 222.99994799999968
 20
-20.000023000000056
 11
 250.46926299999996
 21
-26.630525000000034
  0
ARC
  8
85
  6
CONTINUOUS
 62
     4
 10
 249.99997100000022
 20
-140.16502700000001
 40
 1.999994
 50
-85.07289216696195
 51
-0.000000000000014
  0
LINE
  8
85
  6
CONTINUOUS
 62
     4
 10
 251.999965
 20
-28.574708000000101
 11
 251.999965
 21
-140.16502700000001
  0
LINE
  8
85
  6
CONTINUOUS
 62
     4
 10
 250.17174200000045
 20
-142.15762300000006
 11
 222.99994799999968
 21
-144.5000070000001
  0
ARC
  8
85
  6
CONTINUOUS
 62
     4
 10
 80.999966000000313
 20
-30.000035000000025
 40
 1.999994
 50
 90.000001718873406
 51
 180.00000286478902
  0
LINE
  8
85
  6
CONTINUOUS
 62
     4
 10
 80.999966000000313
 20
-28.000042000000121
 11
 200.99997499999972
 21
-28.000042000000121
  0
ARC
  8
85
  6
CONTINUOUS
 62
     4
 10
 80.999966000000313
 20
-139.00001399999996
 40
 1.999994
 50
 180.00000286478902
 51
-90.000001557275667
  0
LINE
  8
85
  6
CONTINUOUS
 62
     4
 10
 78.999972000000525
 20
-30.000035000000025
 11
 78.999972000000525
 21
-139.00001399999996
  0
LINE
  8
85
  6
CONTINUOUS
 62
     4
 10
 80.999966000000313
 20
-141.0000070000001
 11
 88.499996999999894
 21
-141.0000070000001
  0
ARC
  8
85
  6
CONTINUOUS
 62
     4
 10
-122.00001799999949
 20
-3.0000119999999697
 40
 3.0000119999999999
 50
 90.000001718873406
 51
 180.00000286478902
  0
LINE
  8
85
  6
CONTINUOUS
 62
     4
 10
-96.000012999999853
 20
 0
 11
-122.00001799999949
 21
 0
  0
ARC
  8
85
  6
CONTINUOUS
 62
     4
 10
-122.00001799999949
 20
-140.00003300000003
 40
 3.0000119999999999
 50
 180.00000286478902
 51
-90.000001557275667
  0
LINE
  8
85
  6
CONTINUOUS
 62
     4
 10
-125.00002999999992
 20
-3.0000119999999697
 11
-125.00002999999992
 21
-140.00003300000003
  0
LINE
  8
85
  6
CONTINUOUS
 62
     4
 10
-122.00001799999949
 20
-143.00000099999988
 11
-96.000012999999853
 21
-143.00000099999988
  0
ARC
  8
85
  6
CONTINUOUS
 62
     4
 10
-35.000011999999515
 20
-31.500041000000014
 40
 1.999994
 50
 0
 51
 90.000001718873406
  0
LINE
  8
85
  6
CONTINUOUS
 62
     4
 10
-54.000017000000298
 20
-29.500047999999879
 11
-35.000011999999515
 21
-29.500047999999879
  0
ARC
  8
85
  6
CONTINUOUS
 62
     4
 10
-35.000011999999515
 20
-137.50000799999998
 40
 1.999994
 50
-90.000001557275667
 51
-0.000000000000014
  0
LINE
  8
85
  6
CONTINUOUS
 62
     4
 10
-33.000017999999727
 20
-31.500041000000014
 11
-33.000017999999727
 21
-137.50000799999998
  0
LINE
  8
85
  6
CONTINUOUS
 62
     4
 10
-54.000017000000298
 20
-139.50000099999988
 11
-35.000011999999515
 21
-139.50000099999988
  0
ARC
  8
85
  6
CONTINUOUS
 62
     4
 10
 97.999977000000399
 20
 2.9999680000000808
 40
 3.999987
 50
 90.000001718873406
 51
 180.00000286478902
  0
LINE
  8
85
  6
CONTINUOUS
 62
     4
 10
 93.999990000000253
 20
 2.9999680000000808
 11
 93.999990000000253
 21
-28.000042000000121
  0
ARC
  8
85
  6
CONTINUOUS
 62
     4
 10
 203.99998800000049
 20
 2.9999680000000808
 40
 3.999987
 50
 0
 51
 90.000001718873406
  0
LINE
  8
85
  6
CONTINUOUS
 62
     4
 10
 203.99998800000049
 20
 6.9999549999999999
 11
 97.999977000000399
 21
 6.9999549999999999
  0
LINE
  8
85
  6
CONTINUOUS
 62
     4
 10
 207.99997499999972
 20
-17.000011000000086
 11
 207.99997499999972
 21
 2.9999680000000808
  0
ARC
  8
85
  6
CONTINUOUS
 62
     4
 10
 119.99995000000035
 20
-6.9999990000001162
 40
 3.999987
 50
 90.000001718873406
 51
 180.00000286478902
  0
LINE
  8
85
  6
CONTINUOUS
 62
     4
 10
 115.99996300000021
 20
-6.9999990000001162
 11
 115.99996300000021
 21
-28.000042000000121
  0
ARC
  8
85
  6
CONTINUOUS
 62
     4
 10
 181.99996999999985
 20
-6.9999990000001162
 40
 3.999987
 50
 0
 51
 90.000001718873406
  0
LINE
  8
85
  6
CONTINUOUS
 62
     4
 10
 181.99996999999985
 20
-3.0000119999999697
 11
 119.99995000000035
 21
-3.0000119999999697
  0
LINE
  8
85
  6
CONTINUOUS
 62
     4
 10
 185.99995800000033
 20
-6.9999990000001162
 11
 185.99995800000033
 21
-28.000042000000121
  0
LINE
  8
85
  6
CONTINUOUS
 62
     4
 10
 126.49996199999987
 20
-139.50000099999988
 11
 126.49996199999987
 21
-114.87110800000005
  0
ARC
  8
85
  6
CONTINUOUS
 62
     4
 10
-96.000012999999853
 20
-1.999992999999904
 40
 1.999994
 50
 0
 51
 90.000001718873406
  0
LINE
  8
85
  6
CONTINUOUS
 62
     4
 10
-95.740718000000015
 20
-23.000035999999909
 11
-96.000012999999853
 21
-23.000035999999909
  0
LINE
  8
85
  6
CONTINUOUS
 62
     4
 10
-86.000046000000111
 20
-31.500041000000014
 11
-94.098928000000342
 21
-19.857884999999897
  0
ARC
  8
85
  6
CONTINUOUS
 62
     4
 10
-96.000012999999853
 20
-20.999998000000005
 40
 1.999994
 50
-90.000001557275667
 51
-0.000000000000014
  0
LINE
  8
85
  6
CONTINUOUS
 62
     4
 10
-94.000019999999495
 20
-1.999992999999904
 11
-94.000019999999495
 21
-20.999998000000005
  0
ARC
  8
85
  6
CONTINUOUS
 62
     4
 10
-96.000012999999853
 20
-141.0000070000001
 40
 1.999994
 50
-90.000001557275667
 51
-0.000000000000014
  0
ARC
  8
85
  6
CONTINUOUS
 62
     4
 10
-96.000012999999853
 20
-122.00000300000011
 40
 1.999994
 50
 0
 51
 90.000001718873406
  0
LINE
  8
85
  6
CONTINUOUS
 62
     4
 10
-94.000019999999495
 20
-141.0000070000001
 11
-94.000019999999495
 21
-122.00000300000011
  0
ARC
  8
85
  6
CONTINUOUS
 62
     4
 10
-248.0000520000001
 20
-141.49999500000013
 40
 1.999994
 50
 90.000001718873406
 51
 180.00000286478902
  0
LINE
  8
85
  6
CONTINUOUS
 62
     4
 10
-250.00004499999955
 20
-141.49999500000013
 11
-250.00004499999955
 21
-151.50000599999998
  0
ARC
  8
85
  6
CONTINUOUS
 62
     4
 10
-147.00004699999931
 20
-141.49999500000013
 40
 1.999994
 50
 0
 51
 90.000001718873406
  0
LINE
  8
85
  6
CONTINUOUS
 62
     4
 10
 83.999977999999828
 20
-28.000042000000121
 11
 83.999977999999828
 21
-141.0000070000001
  0
LINE
  8
85
  6
CONTINUOUS
 62
     4
 10
-287.50002399999994
 20
-151.50000600000007
 11
-287.50002399999994
 21
-241.50002500000016
  0
LINE
  8
85
  6
CONTINUOUS
 62
     4
 10
-3.5000030000001061
 20
-150.50003199999992
 11
 76.499980000000505
 21
-150.50003199999992
  0
LINE
  8
85
  6
CONTINUOUS
 62
     4
 10
 272.49997600000006
 20
-241.50002500000005
 11
 272.49997600000006
 21
-151.50000599999998
  0
LINE
  8
85
  6
CONTINUOUS
 62
     4
 10
 272.49997600000006
 20
-151.50000599999998
 11
-287.50002399999994
 21
-151.50000600000007
  0
LINE
  8
85
  6
CONTINUOUS
 62
     4
 10
 272.49997600000006
 20
-241.50002500000005
 11
-287.50002399999994
 21
-241.50002500000016
  0
LINE
  8
85
  6
CONTINUOUS
 62
     4
 10
-206.0000550000002
 20
-97.653355960586396
 11
-206.0000550000002
 21
-143.99999399999996
  0
LINE
  8
85
  6
CONTINUOUS
 62
     4
 10
-189.00004300000066
 20
-143.99999399999996
 11
-189.00004300000066
 21
-97.65335596058668
  0
LINE
  8
85
  6
CONTINUOUS
 62
     4
 10
-206.0000550000002
 20
 1.0000000000000142
 11
-206.0000550000002
 21
-45.346644039413604
  0
LINE
  8
85
  6
CONTINUOUS
 62
     4
 10
-189.00004300000066
 20
-45.34664403941332
 11
-189.00004300000066
 21
 1.0000000000000142
  0
LINE
  8
85
  6
CONTINUOUS
 62
     4
 10
-206.0000550000002
 20
 1.0000000000000142
 11
-189.00004300000066
 21
 1.0000000000000142
  0
LINE
  8
85
  6
CONTINUOUS
 62
     4
 10
-206.0000550000002
 20
-8.9999999999999858
 11
-189.00004300000066
 21
-8.9999999999999858
  0
LINE
  8
85
  6
CONTINUOUS
 62
     4
 10
-206.0000550000002
 20
-8.9999999999999858
 11
-203.5000550000002
 21
 1.0000000000000142
  0
LINE
  8
85
  6
CONTINUOUS
 62
     4
 10
-189.00004299999944
 20
-8.9999999999999858
 11
-191.50004299999941
 21
 1.0000000000000142
  0
LINE
  8
85
  6
CONTINUOUS
 62
     4
 10
-206.0000550000002
 20
-143.99999400000019
 11
-189.00004300000066
 21
-143.99999400000019
  0
LINE
  8
85
  6
CONTINUOUS
 62
     4
 10
-206.0000550000002
 20
-133.99999400000019
 11
-203.5000550000002
 21
-143.99999400000019
  0
LINE
  8
85
  6
CONTINUOUS
 62
     4
 10
-189.00004300000066
 20
-133.99999400000507
 11
-191.50004299999941
 21
-143.99999400000019
  0
LINE
  8
181
  6
CONTINUOUS
 62
     6
 10
 3.0971635589878659
 20
 278.6310043281004
 11
 3.0971635589878659
 21
 243.1402497746414
  0
LINE
  8
181
  6
CONTINUOUS
 62
     6
 10
-136.90282444101172
 20
 279.25762732810051
 11
-136.90282444101172
 21
 243.1402497746414
  0
LINE
  8
181
  6
CONTINUOUS
 62
     6
 10
 3.0971635589878659
 20
 246.7402497746414
 11
-136.90282444101172
 21
 246.7402497746414
  0
LINE
  8
181
  6
CONTINUOUS
 62
     6
 10
 3.0971635589878659
 20
 246.7402497746414
 11
-11.575050452019219
 21
 249.85892513690783
  0
LINE
  8
181
  6
CONTINUOUS
 62
     6
 10
 3.0971635589878659
 20
 246.7402497746414
 11
-11.575050452019219
 21
 243.62157441237505
  0
LINE
  8
181
  6
CONTINUOUS
 62
     6
 10
-136.90282444101172
 20
 246.7402497746414
 11
-122.23061043000463
 21
 243.62157441237505
  0
LINE
  8
181
  6
CONTINUOUS
 62
     6
 10
-136.90282444101172
 20
 246.7402497746414
 11
-122.23061043000463
 21
 249.85892513690783
  0
TEXT
  8
181
  6
CONTINUOUS
 62
     96
 10
-88.502830655588639
 20
 252.1402497746414
 11
-45.302830655588643
 21
 252.1402497746414
 40
 18
 41
 0.8
  1
140
 50
 0
 72
  5
  0
LINE
  8
181
  6
CONTINUOUS
 62
     6
 10
 33.09719955898823
 20
 295.88521732810051
 11
 33.09719955898823
 21
 207.1402497746414
  0
LINE
  8
181
  6
CONTINUOUS
 62
     6
 10
-166.90281544101231
 20
 295.88521732810051
 11
-166.90281544101231
 21
 207.1402497746414
  0
LINE
  8
181
  6
CONTINUOUS
 62
     6
 10
 33.09719955898823
 20
 210.74024977464143
 11
-166.90281544101231
 21
 210.74024977464143
  0
LINE
  8
181
  6
CONTINUOUS
 62
     6
 10
 33.09719955898823
 20
 210.74024977464143
 11
 18.424985547981144
 21
 213.85892513690783
  0
LINE
  8
181
  6
CONTINUOUS
 62
     6
 10
 33.09719955898823
 20
 210.74024977464143
 11
 18.424985547981144
 21
 207.62157441237503
  0
LINE
  8
181
  6
CONTINUOUS
 62
     6
 10
-166.90281544101231
 20
 210.74024977464143
 11
-152.23060143000521
 21
 207.62157441237503
  0
LINE
  8
181
  6
CONTINUOUS
 62
     6
 10
-166.90281544101231
 20
 210.74024977464143
 11
-152.23060143000521
 21
 213.85892513690783
  0
TEXT
  8
181
  6
CONTINUOUS
 62
     96
 10
-88.502808155588752
 20
 216.1402497746414
 11
-45.302808155588757
 21
 216.1402497746414
 40
 18
 41
 0.8
  1
200
 50
 0
 72
  5
  0
LINE
  8
181
  6
CONTINUOUS
 62
     6
 10
 193.0971675589883
 20
 267.31520432810055
 11
 193.0971675589883
 21
 246.7402497746414
  0
LINE
  8
181
  6
CONTINUOUS
 62
     6
 10
 3.0971635589878659
 20
 246.7402497746414
 11
 193.0971675589883
 21
 246.7402497746414
  0
LINE
  8
181
  6
CONTINUOUS
 62
     6
 10
 3.0971635589878659
 20
 246.7402497746414
 11
 17.769377569994951
 21
 243.62157441237505
  0
LINE
  8
181
  6
CONTINUOUS
 62
     6
 10
 3.0971635589878659
 20
 246.7402497746414
 11
 17.769377569994951
 21
 249.85892513690783
  0
LINE
  8
181
  6
CONTINUOUS
 62
     6
 10
 193.0971675589883
 20
 246.7402497746414
 11
 178.4249535479812
 21
 249.85892513690783
  0
LINE
  8
181
  6
CONTINUOUS
 62
     6
 10
 193.0971675589883
 20
 246.7402497746414
 11
 178.4249535479812
 21
 243.62157441237505
  0
TEXT
  8
181
  6
CONTINUOUS
 62
     96
 10
 76.497165344411371
 20
 252.1402497746414
 11
 119.69716534441136
 21
 252.1402497746414
 40
 18
 41
 0.8
  1
190
 50
 0
 72
  5
  0
LINE
  8
181
  6
CONTINUOUS
 62
     6
 10
 214.09716555898811
 20
 500.98519332810054
 11
 214.09716555898811
 21
 644.95660197589928
  0
LINE
  8
181
  6
CONTINUOUS
 62
     6
 10
-229.1650197531049
 20
 458.42336766438393
 11
-229.1650197531049
 21
 644.95660197589928
  0
LINE
  8
181
  6
CONTINUOUS
 62
     6
 10
 214.09716555898811
 20
 641.35660197589937
 11
-229.1650197531049
 21
 641.35660197589937
  0
LINE
  8
181
  6
CONTINUOUS
 62
     6
 10
 214.09716555898811
 20
 641.35660197589937
 11
 199.42495154798104
 21
 644.47527733816571
  0
LINE
  8
181
  6
CONTINUOUS
 62
     6
 10
 214.09716555898811
 20
 641.35660197589937
 11
 199.42495154798104
 21
 638.23792661363302
  0
LINE
  8
181
  6
CONTINUOUS
 62
     6
 10
-229.1650197531049
 20
 641.35660197589937
 11
-214.4928057420978
 21
 638.23792661363302
  0
LINE
  8
181
  6
CONTINUOUS
 62
     6
 10
-229.1650197531049
 20
 641.35660197589937
 11
-214.4928057420978
 21
 644.47527733816571
  0
TEXT
  8
213
  6
CONTINUOUS
 62
     96
 10
-45.33392741892348
 20
 646.75660197589934
 11
 30.266072581076511
 21
 646.75660197589934
 40
 18
 41
 0.8
  1
約４５０
 50
 0
 72
  5
  0
LINE
  8
85
  6
CONTINUOUS
 62
     4
 10
-13.500003000000106
 20
-155.50003199999992
 11
 61.499996999999901
 21
-155.50003199999992
  0
LINE
  8
85
  6
CONTINUOUS
 62
     4
 10
 61.499996999999901
 20
-155.50003199999992
 11
 61.499996999999901
 21
-195.50003199999992
  0
LINE
  8
85
  6
CONTINUOUS
 62
     4
 10
 61.499996999999901
 20
-195.50003199999992
 11
-13.500003000000106
 21
-195.50003199999992
  0
LINE
  8
85
  6
CONTINUOUS
 62
     4
 10
-13.500003000000106
 20
-195.50003199999992
 11
-13.500003000000106
 21
-155.50003199999992
  0
TEXT
  8
213
  6
CONTINUOUS
 62
     7
 10
-2.0400034947186612
 20
-185.10003238146965
 11
 50.039998336336026
 21
-185.10003238146965
 40
 19.200000762939453
 41
 0.8
  1
N.P
 50
 0
 72
  5
  0
LINE
  8
85
  6
DASHED
 62
     2
 10
 16.499988500000185
 20
-64.500025000000051
 11
 56.499988500000171
 21
-64.500025000000051
  0
LINE
  8
85
  6
DASHED
 62
     2
 10
 56.499988500000171
 20
-64.500025000000051
 11
 56.499988500000171
 21
-104.50002500000005
  0
LINE
  8
85
  6
DASHED
 62
     2
 10
 56.499988500000171
 20
-104.50002500000005
 11
 16.499988500000185
 21
-104.50002500000005
  0
LINE
  8
85
  6
DASHED
 62
     2
 10
 16.499988500000185
 20
-104.50002500000005
 11
 16.499988500000185
 21
-64.500025000000051
  0
LINE
  8
85
  6
DASHED
 62
     2
 10
 31.4999885000002
 20
-99.500025000000051
 11
 31.4999885000002
 21
-64.500025000000051
  0
LINE
  8
85
  6
DASHED
 62
     2
 10
 31.4999885000002
 20
-99.500025000000051
 11
 41.499988500000171
 21
-99.500025000000051
  0
LINE
  8
85
  6
DASHED
 62
     2
 10
-1.0000339999996868
 20
-78.500043999999889
 11
 16.499988500000185
 21
-78.500043999999889
  0
LINE
  8
85
  6
DASHED
 62
     2
 10
-1.0000339999996868
 20
-90.500004999999874
 11
 16.499988500000185
 21
-90.500004999999874
  0
LINE
  8
85
  6
DASHED
 62
     2
 10
 70.999953999999889
 20
-78.500043999999889
 11
 56.4999885000002
 21
-78.500043999999889
  0
LINE
  8
85
  6
DASHED
 62
     2
 10
 70.999953999999889
 20
-90.500004999999874
 11
 56.4999885000002
 21
-90.500004999999874
  0
LINE
  8
85
  6
DASHED
 62
     2
 10
 41.499988500000171
 20
-69.500025000000051
 11
 41.499988500000143
 21
-104.50002500000005
  0
LINE
  8
85
  6
DASHED
 62
     2
 10
 31.4999885000002
 20
-69.500025000000051
 11
 41.499988500000171
 21
-69.500025000000051
  0
LINE
  8
181
  6
CONTINUOUS
 62
     6
 10
 274.29997600000002
 20
-241.50002500000005
 11
 328.32352163744201
 21
-241.50002500000005
  0
LINE
  8
181
  6
CONTINUOUS
 62
     6
 10
 274.29997600000002
 20
-151.50000599999998
 11
 328.32352163744201
 21
-151.50000599999998
  0
LINE
  8
181
  6
CONTINUOUS
 62
     6
 10
 324.7235216374421
 20
-241.50002500000005
 11
 324.7235216374421
 21
-151.50000599999998
  0
LINE
  8
181
  6
CONTINUOUS
 62
     6
 10
 324.7235216374421
 20
-241.50002500000005
 11
 327.84219699970851
 21
-226.82781098899295
  0
LINE
  8
181
  6
CONTINUOUS
 62
     6
 10
 324.7235216374421
 20
-241.50002500000005
 11
 321.6048462751757
 21
-226.82781098899295
  0
LINE
  8
181
  6
CONTINUOUS
 62
     6
 10
 324.7235216374421
 20
-151.50000599999998
 11
 321.6048462751757
 21
-166.17222001100708
  0
LINE
  8
181
  6
CONTINUOUS
 62
     6
 10
 324.7235216374421
 20
-151.50000599999998
 11
 327.84219699970851
 21
-166.17222001100708
  0
TEXT
  8
181
  6
CONTINUOUS
 62
     96
 10
 319.32352163744201
 20
-210.90001560728834
 11
 319.32352163744201
 21
-182.10001560728838
 40
 18
 41
 0.8
  1
90
 50
 90.000001535234489
 72
  5
  0
LINE
  8
85
  6
DASHED
 62
     2
 10
 245.49999600000046
 20
-151.50000599999998
 11
 245.49999600000046
 21
-157.50000599999998
  0
LINE
  8
85
  6
DASHED
 62
     2
 10
 259.49999600000046
 20
-151.50000599999998
 11
 259.49999600000046
 21
-157.50000599999998
  0
LINE
  8
85
  6
DASHED
 62
     2
 10
 245.49999600000046
 20
-157.50000599999998
 11
 259.49999600000046
 21
-157.50000599999998
  0
LINE
  8
85
  6
DASHED
 62
     2
 10
-274.50004500000057
 20
-151.5000060000001
 11
-274.50004500000057
 21
-157.5000060000001
  0
LINE
  8
85
  6
DASHED
 62
     2
 10
-260.50004500000057
 20
-151.5000060000001
 11
-260.50004500000057
 21
-157.5000060000001
  0
LINE
  8
85
  6
DASHED
 62
     2
 10
-274.50004500000057
 20
-157.5000060000001
 11
-260.50004500000057
 21
-157.5000060000001
  0
LINE
  8
85
  6
CONTINUOUS
 62
     4
 10
 113.4999600000001
 20
-51.093083558691966
 11
 188.4999600000001
 21
-51.093083558691966
  0
LINE
  8
85
  6
CONTINUOUS
 62
     4
 10
 188.4999600000001
 20
-51.093083558691966
 11
 188.4999600000001
 21
-76.093083558691987
  0
LINE
  8
85
  6
CONTINUOUS
 62
     4
 10
 188.4999600000001
 20
-76.093083558691987
 11
 113.4999600000001
 21
-76.093083558691987
  0
LINE
  8
85
  6
CONTINUOUS
 62
     4
 10
 113.4999600000001
 20
-76.093083558691987
 11
 113.4999600000001
 21
-51.093083558691966
  0
LINE
  8
85
  6
CONTINUOUS
 62
     7
 10
-410.32218454793519
 20
 65.034274931874108
 11
-460.32218454793519
 21
 65.034274931874108
  0
LINE
  8
85
  6
CONTINUOUS
 62
     7
 10
-427.70884942113832
 20
 69.693017743719423
 11
-410.32218454793531
 21
 65.034274931874108
  0
LINE
  8
85
  6
CONTINUOUS
 62
     7
 10
-410.32218454793531
 20
 65.034274931874108
 11
-427.70884942113832
 21
 60.375532120028709
  0
LINE
  8
85
  6
CONTINUOUS
 62
     7
 10
-460.32218454793519
 20
 65.034274931874108
 11
-460.32218454793519
 21
 31.826727762062792
  0
TEXT
  8
213
  6
CONTINUOUS
 62
     56
 10
-491.84378529996627
 20
 31.288991913006182
 11
-475.04378529996626
 21
 31.288991913006182
 40
 21
 41
 0.8
  1
A
 50
 0
 72
  5
  0
LINE
  8
85
  6
CONTINUOUS
 62
     7
 10
-410.32218454793519
 20
 85.034274931874094
 11
-410.32218454793519
 21
 45.034274931874101
  0
LINE
  8
85
  6
CONTINUOUS
 62
     7
 10
-410.32218454793519
 20
-284.96572506812589
 11
-460.32218454793519
 21
-284.96572506812589
  0
LINE
  8
85
  6
CONTINUOUS
 62
     7
 10
-427.70884942113844
 20
-280.30698225628055
 11
-410.32218454793542
 21
-284.96572506812589
  0
LINE
  8
85
  6
CONTINUOUS
 62
     7
 10
-410.32218454793542
 20
-284.96572506812589
 11
-427.70884942113844
 21
-289.62446787997129
  0
LINE
  8
85
  6
CONTINUOUS
 62
     7
 10
-460.32218454793519
 20
-284.96572506812589
 11
-460.32218454793519
 21
-251.75817789831456
  0
TEXT
  8
213
  6
CONTINUOUS
 62
     56
 10
-491.84378529996627
 20
-272.22044204925794
 11
-475.04378529996626
 21
-272.22044204925794
 40
 21
 41
 0.8
  1
A
 50
 0
 72
  5
  0
LINE
  8
85
  6
CONTINUOUS
 62
     7
 10
-410.32218454793519
 20
-264.96572506812589
 11
-410.32218454793519
 21
-304.96572506812589
  0
TEXT
  8
213
  6
CONTINUOUS
 62
     96
 10
-126.90280851321661
 20
 150.99653908281749
 11
-6.9028085132166126
 21
 150.99653908281749
 40
 24
 41
 0.8
  1
Ａ～Ａ矢視
 50
 0
 72
  5
  0
LINE
  8
213
  6
CONTINUOUS
 62
     2
 10
-136.50254469207374
 20
 141.3967689336306
 11
 2.6974553079262336
 21
 141.3967689336306
  0
TEXT
  8
229
  6
CONTINUOUS
 62
     5
 10
-351.25281788939611
 20
-740.31478167189948
 11
-248.05281788939607
 21
-740.31478167189948
 40
 12
 41
 0.8
  1
CHECKED
 50
 0
 72
  5
  0
TEXT
  8
229
  6
CONTINUOUS
 62
     5
 10
-201.55281796092166
 20
-740.31478167189948
 11
-82.752817960921632
 21
-740.31478167189948
 40
 12
 41
 0.8
  1
DESIGNED
 50
 0
 72
  5
  0
TEXT
  8
229
  6
CONTINUOUS
 62
     5
 10
-20.652817746344926
 20
-740.31478167189948
 11
 51.347182253655077
 21
-740.31478167189948
 40
 12
 41
 0.8
  1
DRAWN
 50
 0
 72
  5
  0
TEXT
  8
229
  6
CONTINUOUS
 62
     5
 10
-256.90281774634497
 20
-614.31478167189948
 11
-184.90281774634497
 21
-614.31478167189948
 40
 12
 41
 0.8
  1
TITLE
 50
 0
 72
  5
  0
TEXT
  8
229
  6
CONTINUOUS
 62
     5
 10
-516.55281796092163
 20
-740.31478167189948
 11
-397.75281796092167
 21
-740.31478167189948
 40
 12
 41
 0.8
  1
APPROVED
 50
 0
 72
  5
  0
TEXT
  8
229
  6
CONTINUOUS
 62
     5
 10
 490.09718225365503
 20
-614.31478167189948
 11
 562.09718225365509
 21
-614.31478167189948
 40
 12
 41
 0.8
  1
SCALE
 50
 0
 72
  5
  0
TEXT
  8
229
  6
CONTINUOUS
 62
     5
 10
 351.76831432234877
 20
-614.31478167189948
 11
 392.56831432234878
 21
-614.31478167189948
 40
 12
 41
 0.8
  1
NO.
 50
 0
 72
  5
  0
TEXT
  8
229
  6
CONTINUOUS
 62
     5
 10
 146.02676337153244
 20
-614.31478167189948
 11
 249.22676337153243
 21
-614.31478167189948
 40
 12
 41
 0.8
  1
DRAWING
 50
 0
 72
  5
  0
LINE
  8
213
  6
CONTINUOUS
 62
     7
 10
 201.59717355898761
 20
 540.18519732810068
 11
 240.28873865312664
 21
 579.263409020361
  0
LINE
  8
213
  6
CONTINUOUS
 62
     7
 10
 201.59717355898761
 20
 540.18519732810068
 11
 214.13646052728083
 21
 548.41722516617267
  0
LINE
  8
213
  6
CONTINUOUS
 62
     7
 10
 201.59717355898761
 20
 540.18519732810068
 11
 209.704114842385
 21
 552.80571645480654
  0
LINE
  8
213
  6
CONTINUOUS
 62
     7
 10
 240.28873865312664
 20
 579.263409020361
 11
 314.08874069160555
 21
 579.263409020361
  0
TEXT
  8
213
  6
CONTINUOUS
 62
     56
 10
 250.98227689276268
 20
 580.16270441197491
 11
 308.58227689276265
 21
 580.16270441197491
 40
 18
 41
 0.8
  1
Ｒ３／８
 50
 0
 72
  5
  0
LINE
  8
213
  6
CONTINUOUS
 62
     7
 10
 201.59717355898761
 20
 395.18519732810068
 11
 247.35114413245194
 21
 302.06956493886275
  0
LINE
  8
213
  6
CONTINUOUS
 62
     7
 10
 201.59717355898761
 20
 395.18519732810068
 11
 205.26865950015983
 21
 380.6414635920969
  0
LINE
  8
213
  6
CONTINUOUS
 62
     7
 10
 201.59717355898761
 20
 395.18519732810068
 11
 210.8667123009146
 21
 383.39216330322336
  0
LINE
  8
213
  6
CONTINUOUS
 62
     7
 10
 247.35114413245194
 20
 302.06956493886275
 11
 321.15114617093082
 21
 302.06956493886275
  0
TEXT
  8
213
  6
CONTINUOUS
 62
     56
 10
 256.48115868117611
 20
 302.7543140302887
 11
 314.08115868117613
 21
 302.7543140302887
 40
 18
 41
 0.8
  1
Ｒ３／８
 50
 0
 72
  5
  0
LINE
  8
213
  6
CONTINUOUS
 62
     7
 10
-153.6448039248825
 20
 422.51012612072708
 11
-232.1121698685329
 21
 348.24968373690552
  0
LINE
  8
213
  6
CONTINUOUS
 62
     7
 10
-153.6448039248825
 20
 422.51012612072708
 11
-166.44504050205236
 21
 414.69002742771283
  0
LINE
  8
213
  6
CONTINUOUS
 62
     7
 10
-153.6448039248825
 20
 422.51012612072708
 11
-162.15768121578864
 21
 410.15978522543293
  0
LINE
  8
213
  6
CONTINUOUS
 62
     7
 10
-232.1121698685329
 20
 348.24968373690552
 11
-334.71217190701168
 21
 348.24968373690552
  0
TEXT
  8
213
  6
CONTINUOUS
 62
     56
 10
-332.9121717997233
 20
 353.64968373690556
 11
-246.51217179972332
 21
 353.64968373690556
 40
 18
 41
 0.8
  1
ドレンプラグ
 50
 0
 72
  5
  0
TEXT
  8
213
  6
CONTINUOUS
 62
     56
 10
-342.91217179972335
 20
 318.64968373690556
 11
-256.51217179972338
 21
 318.64968373690556
 40
 18
 41
 0.8
  1
（Ｒ３／８）
 50
 0
 72
  5
  0
LINE
  8
213
  6
CONTINUOUS
 62
     7
 10
 252.49999600000046
 20
-151.50000599999998
 11
 293.83113892866493
 21
-91.819498653031545
  0
LINE
  8
213
  6
CONTINUOUS
 62
     7
 10
 252.49999600000046
 20
-151.50000599999998
 11
 263.41733301534691
 21
-141.21352202862539
  0
LINE
  8
213
  6
CONTINUOUS
 62
     7
 10
 252.49999600000046
 20
-151.50000599999998
 11
 258.28958968035374
 21
-137.66235428388811
  0
LINE
  8
213
  6
CONTINUOUS
 62
     7
 10
 293.83113892866493
 20
-91.819498653031545
 11
 382.03114075256701
 21
-91.819498653031545
  0
TEXT
  8
213
  6
CONTINUOUS
 62
     56
 10
 308.23113978697182
 20
-86.419498653031553
 11
 380.23113978697182
 21
-86.419498653031553
 40
 18
 41
 0.8
  1
４～φ１４
 50
 0
 72
  5
  0
TEXT
  8
208
  6
CONTINUOUS
 62
     3
 10
-31.452817585412383
 20
-795.81478167189948
 11
 62.147182414587611
 21
-795.81478167189948
 40
 21
 41
 0.8
  1
清水
 50
 0
 72
  5
  0
LINE
  8
85
  6
DASHED
 62
     2
 10
 76.499980000000505
 20
-77.000038000000131
 11
 70.999953999999889
 21
-77.000038000000131
  0
LINE
  8
85
  6
CONTINUOUS
 62
     4
 10
 78.999972000000525
 20
-77.000038000000131
 11
 76.499980000000505
 21
-77.000038000000131
  0
LINE
  8
85
  6
CONTINUOUS
 62
     4
 10
 76.499980000000505
 20
-92.000011000000086
 11
 78.999972000000525
 21
-92.000011000000086
  0
LINE
  8
85
  6
DASHED
 62
     2
 10
 76.499980000000505
 20
-92.000011000000086
 11
 70.999953999999889
 21
-92.000011000000086
  0
LINE
  8
85
  6
CONTINUOUS
 62
     4
 10
-3.5000030000001061
 20
-91.500023999999939
 11
-4.0000460000001112
 21
-91.500023999999939
  0
LINE
  8
85
  6
DASHED
 62
     2
 10
-3.5000030000001061
 20
-91.500023999999939
 11
-1.0000339999996868
 21
-91.500023999999939
  0
LINE
  8
85
  6
DASHED
 62
     2
 10
-3.5000030000001061
 20
-77.500025000000051
 11
-1.0000339999996868
 21
-77.500025000000051
  0
LINE
  8
85
  6
CONTINUOUS
 62
     4
 10
-4.0000460000001112
 20
-77.500025000000051
 11
-3.5000030000001061
 21
-77.500025000000051
  0
LINE
  8
85
  6
DASHED
 62
     2
 10
-1.0000339999996868
 20
-77.500025000000051
 11
-1.0000339999996868
 21
-91.500023999999939
  0
LINE
  8
85
  6
DASHED
 62
     2
 10
 70.999953999999889
 20
-77.000038000000131
 11
 70.999953999999889
 21
-92.000011000000086
  0
TEXT
  8
208
  6
CONTINUOUS
 62
     3
 10
-52.90281746024263
 20
-827.31478167189948
 11
 83.59718253975737
 21
-827.31478167189948
 40
 21
 41
 0.8
  1
Ｈ１０，３・２３
 50
 0
 72
  5
  0
TEXT
  8
208
  6
CONTINUOUS
 62
     3
 10
-383.50281746024268
 20
-674.31478167189948
 11
-58.302817460242665
 21
-674.31478167189948
 40
 18
 41
 0.8
  1
１連式別置タイプ
 50
 0
 72
  5
  0
TEXT
  8
229
  6
CONTINUOUS
 62
     5
 10
 170.58457517479766
 20
-818.31478169958234
 11
 291.78457517479768
 21
-818.31478169958234
 40
 21
 41
 0.8
  1
株式会社
 50
 0
 72
  5
  0
TEXT
  8
229
  6
CONTINUOUS
 62
     5
 10
 140.68104692630689
 20
-758.31478167189948
 11
 462.28104692630694
 21
-758.31478167189948
 40
 24
 41
 0.8
  1
SINYO CO.,LTD
 50
 0
 72
  5
  0
TEXT
  8
224
  6
CONTINUOUS
 62
     5
 10
 342.79718221789227
 20
-824.31478167189948
 11
 509.59718221789223
 21
-824.31478167189948
 40
 48
 41
 0.8
  1
神洋
 50
 0
 72
  5
  0
LINE
  8
85
  6
CONTINUOUS
 62
     4
 10
-235.50001399999994
 20
-116.49996499999995
 11
-206.0000550000002
 21
-116.49996499999997
  0
LINE
  8
85
  6
CONTINUOUS
 62
     4
 10
-189.00004300000066
 20
-116.49996499999997
 11
-159.50003900000002
 21
-116.49996499999997
  0
LINE
  8
85
  6
CONTINUOUS
 62
     4
 10
-159.50008400000004
 20
-26.500035000000025
 11
-189.00004300000066
 21
-26.500035000000022
  0
LINE
  8
85
  6
CONTINUOUS
 62
     4
 10
-206.0000550000002
 20
-26.500035000000018
 11
-235.50005899999994
 21
-26.500035000000025
  0
LINE
  8
85
  6
CONTINUOUS
 62
     4
 10
-206.0000550000002
 20
-24.500042000000125
 11
-250.00004499999955
 21
-24.500042000000121
  0
LINE
  8
85
  6
CONTINUOUS
 62
     4
 10
-248.0000520000001
 20
-139.50000099999986
 11
-206.0000550000002
 21
-139.50000099999986
  0
LINE
  8
85
  6
CONTINUOUS
 62
     4
 10
-189.00004300000066
 20
-139.50000099999986
 11
-147.00004699999931
 21
-139.50000099999986
  0
LINE
  8
0
  6
CONTINUOUS
 62
     3
 10
-206.0000550000002
 20
-133.99999400000019
 11
-189.00004299999944
 21
-133.99999400000019
  0
LINE
  8
187
  6
CONTINUOUS
 62
     6
 10
-267.50004500000068
 20
-305.27505611443814
 11
-267.50004500000068
 21
-300.19710579250261
  0
LINE
  8
187
  6
CONTINUOUS
 62
     6
 10
-287.50002400000085
 20
-245.52002500000006
 11
-287.50002400000085
 21
-308.23710579250258
  0
LINE
  8
187
  6
CONTINUOUS
 62
     6
 10
-287.50002400000085
 20
-304.21710579250259
 11
-267.50004500000068
 21
-304.21710579250259
  0
TEXT
  8
187
  6
CONTINUOUS
 62
     96
 10
-336.28002400000088
 20
-302.23710579250258
 11
-307.48002400000087
 21
-302.23710579250258
 40
 18
 41
 0.8
  1
20
 50
 0
 72
  5
  0
LINE
  8
187
  6
CONTINUOUS
 62
     6
 10
-340.3000240000008
 20
-304.21710579250259
 11
-287.50002400000085
 21
-304.21710579250259
  0
LINE
  8
187
  6
CONTINUOUS
 62
     6
 10
-287.50002400000085
 20
-304.21710579250259
 11
-302.17223801100795
 21
-301.09843043023619
  0
LINE
  8
187
  6
CONTINUOUS
 62
     6
 10
-287.50002400000085
 20
-304.21710579250259
 11
-302.17223801100795
 21
-307.33578115476899
  0
LINE
  8
187
  6
CONTINUOUS
 62
     6
 10
 252.49999600000046
 20
-305.27505611443809
 11
 252.49999600000046
 21
-300.1971057925025
  0
LINE
  8
187
  6
CONTINUOUS
 62
     6
 10
-267.50004500000068
 20
-304.21710579250259
 11
 252.49999600000046
 21
-304.21710579250248
  0
LINE
  8
187
  6
CONTINUOUS
 62
     6
 10
-267.50004500000068
 20
-304.21710579250259
 11
-252.82783098899358
 21
-307.33578115476899
  0
LINE
  8
187
  6
CONTINUOUS
 62
     6
 10
-267.50004500000068
 20
-304.21710579250259
 11
-252.82783098899358
 21
-301.09843043023619
  0
LINE
  8
187
  6
CONTINUOUS
 62
     6
 10
 252.49999600000046
 20
-304.21710579250248
 11
 237.82778198899339
 21
-301.09843043023608
  0
LINE
  8
187
  6
CONTINUOUS
 62
     6
 10
 252.49999600000046
 20
-304.21710579250248
 11
 237.82778198899339
 21
-307.33578115476888
  0
TEXT
  8
187
  6
CONTINUOUS
 62
     96
 10
-29.10002450000011
 20
-302.23710579250252
 11
 14.099975499999893
 21
-302.23710579250252
 40
 18
 41
 0.8
  1
520
 50
 0.0000000000000125
 72
  5
  0
LINE
  8
187
  6
CONTINUOUS
 62
     6
 10
 272.49997600000006
 20
-245.52002500000006
 11
 272.49997600000006
 21
-308.23710579250246
  0
LINE
  8
187
  6
CONTINUOUS
 62
     6
 10
 252.49999600000046
 20
-304.21710579250248
 11
 272.49997600000006
 21
-304.21710579250248
  0
TEXT
  8
187
  6
CONTINUOUS
 62
     96
 10
 292.47997600000008
 20
-302.23710579250246
 11
 321.27997600000009
 21
-302.23710579250246
 40
 18
 41
 0.8
  1
20
 50
 0
 72
  5
  0
LINE
  8
187
  6
CONTINUOUS
 62
     6
 10
 325.29997600000013
 20
-304.21710579250248
 11
 272.49997600000006
 21
-304.21710579250248
  0
LINE
  8
187
  6
CONTINUOUS
 62
     6
 10
 272.49997600000006
 20
-304.21710579250248
 11
 287.17219001100716
 21
-307.33578115476888
  0
LINE
  8
187
  6
CONTINUOUS
 62
     6
 10
 272.49997600000006
 20
-304.21710579250248
 11
 287.17219001100716
 21
-301.09843043023608
  0
LINE
  8
187
  6
CONTINUOUS
 62
     6
 10
-287.50002400000085
 20
-308.23710579250258
 11
-287.50002400000085
 21
-336.25710579250256
  0
LINE
  8
187
  6
CONTINUOUS
 62
     6
 10
 272.49997600000006
 20
-308.23710579250246
 11
 272.49997600000006
 21
-336.25710579250244
  0
LINE
  8
187
  6
CONTINUOUS
 62
     6
 10
-287.50002400000085
 20
-332.23710579250258
 11
 272.49997600000006
 21
-332.23710579250246
  0
LINE
  8
187
  6
CONTINUOUS
 62
     6
 10
-287.50002400000085
 20
-332.23710579250258
 11
-272.82780998899375
 21
-335.35578115476898
  0
LINE
  8
187
  6
CONTINUOUS
 62
     6
 10
-287.50002400000085
 20
-332.23710579250258
 11
-272.82780998899375
 21
-329.11843043023617
  0
LINE
  8
187
  6
CONTINUOUS
 62
     6
 10
 272.49997600000006
 20
-332.23710579250246
 11
 257.82776198899296
 21
-329.11843043023606
  0
LINE
  8
187
  6
CONTINUOUS
 62
     6
 10
 272.49997600000006
 20
-332.23710579250246
 11
 257.82776198899296
 21
-335.35578115476886
  0
TEXT
  8
187
  6
CONTINUOUS
 62
     96
 10
-29.100024000000396
 20
-330.2571057925025
 11
 14.099975999999607
 21
-330.2571057925025
 40
 18
 41
 0.8
  1
560
 50
 0.0000000000000116
 72
  5
  0
LINE
  8
85
  6
CONTINUOUS
 62
     4
 10
-250.00004499999955
 20
-25.500017000000071
 11
-256.99999999999977
 21
-25.500017000000071
  0
ARC
  8
85
  6
CONTINUOUS
 62
     4
 10
-256.99999999999977
 20
-116.50000900000011
 40
 1.000019
 50
 180.00000286478902
 51
-90.000001557275667
  0
LINE
  8
85
  6
CONTINUOUS
 62
     4
 10
-256.99999999999977
 20
-117.50002799999993
 11
-250.00004499999955
 21
-117.50002799999993
  0
LINE
  8
85
  6
CONTINUOUS
 62
     4
 10
-263.00002499999948
 20
-55.500008000000008
 11
-263.00002499999948
 21
-87.499993000000046
  0
ARC
  8
85
  6
CONTINUOUS
 62
     4
 10
-263.00002499999948
 20
-46.090830000000011
 40
 6.4523959999999994
 50
-90.000001557275667
 51
-41.407139580200699
  0
LINE
  8
85
  6
CONTINUOUS
 62
     4
 10
-263.00002499999948
 20
-55.500008000000008
 11
-263.78929399999981
 21
-57.346923000000089
  0
LINE
  8
85
  6
CONTINUOUS
 62
     4
 10
-263.78929399999981
 20
-57.346923000000089
 11
-264.43908299999987
 21
-59.275027000000051
  0
LINE
  8
85
  6
CONTINUOUS
 62
     4
 10
-264.43908299999987
 20
-59.275027000000051
 11
-264.95997699999964
 21
-61.265631000000013
  0
LINE
  8
85
  6
CONTINUOUS
 62
     4
 10
-264.95997699999964
 20
-61.265631000000013
 11
-265.36251799999957
 21
-63.300040000000003
  0
LINE
  8
85
  6
CONTINUOUS
 62
     4
 10
-265.36251799999957
 20
-63.300040000000003
 11
-265.65724799999964
 21
-65.359386999999998
  0
LINE
  8
85
  6
CONTINUOUS
 62
     4
 10
-263.00002499999948
 20
-52.543226000000033
 11
-263.00002499999948
 21
-55.500008000000008
  0
ARC
  8
85
  6
CONTINUOUS
 62
     4
 10
-256.99999999999966
 20
-26.500036000000051
 40
 1.000019
 50
 90.000001718873406
 51
 180.00000286478902
  0
LINE
  8
85
  6
CONTINUOUS
 62
     4
 10
-258.00001899999972
 20
-26.500036000000051
 11
-258.00001899999972
 21
-116.50000900000001
  0
ARC
  8
85
  6
CONTINUOUS
 62
     4
 10
-263.00002499999948
 20
-97.401540000000097
 40
 6.9014899999999999
 50
 44.430074860756925
 51
 90.000001718873406
  0
LINE
  8
85
  6
CONTINUOUS
 62
     4
 10
-263.00002499999948
 20
-87.499993000000046
 11
-263.00002499999948
 21
-90.500005000000016
  0
LINE
  8
85
  6
CONTINUOUS
 62
     4
 10
-266.00003699999945
 20
-71.500000000000028
 11
-265.96544399999959
 21
-73.521875000000051
  0
LINE
  8
85
  6
CONTINUOUS
 62
     4
 10
-265.96544399999959
 20
-73.521875000000051
 11
-265.85470899999984
 21
-75.575021000000021
  0
LINE
  8
85
  6
CONTINUOUS
 62
     4
 10
-265.85470899999984
 20
-75.575021000000021
 11
-265.65724799999964
 21
-77.640658000000059
  0
LINE
  8
85
  6
CONTINUOUS
 62
     4
 10
-265.65724799999964
 20
-77.640658000000059
 11
-265.36251799999957
 21
-79.700005000000061
  0
LINE
  8
85
  6
CONTINUOUS
 62
     4
 10
-265.36251799999957
 20
-79.700005000000061
 11
-264.95997699999964
 21
-81.734415000000041
  0
LINE
  8
85
  6
CONTINUOUS
 62
     4
 10
-264.95997699999964
 20
-81.734415000000041
 11
-264.43908299999987
 21
-83.725018000000006
  0
LINE
  8
85
  6
CONTINUOUS
 62
     4
 10
-264.43908299999987
 20
-83.725018000000006
 11
-263.78929399999981
 21
-85.653167000000082
  0
LINE
  8
85
  6
CONTINUOUS
 62
     4
 10
-263.78929399999981
 20
-85.653167000000082
 11
-263.00002499999948
 21
-87.499993000000046
  0
ARC
  8
85
  6
CONTINUOUS
 62
     4
 10
-256.99999999999966
 20
-116.50000900000001
 40
 1.000019
 50
 180.00000286478902
 51
-90.000001557275667
  0
LINE
  8
85
  6
CONTINUOUS
 62
     4
 10
-265.65724799999964
 20
-65.359386999999998
 11
-265.85470899999984
 21
-67.425024000000036
  0
LINE
  8
85
  6
CONTINUOUS
 62
     4
 10
-265.85470899999984
 20
-67.425024000000036
 11
-265.96544399999959
 21
-69.478170000000006
  0
LINE
  8
85
  6
CONTINUOUS
 62
     4
 10
-265.96544399999959
 20
-69.478170000000006
 11
-266.00003699999945
 21
-71.500000000000028
  0
LINE
  8
85
  6
CENTER
 62
     7
 10
-266.00003699999945
 20
-109.50001
 11
-248.61001999999974
 21
-109.50001
  0
LINE
  8
85
  6
CENTER
 62
     7
 10
-266.00003699999945
 20
-33.499990000000054
 11
-248.61001999999974
 21
-33.499990000000054
  0
LINE
  8
187
  6
CONTINUOUS
 62
     6
 10
-197.50004899999999
 20
-281.81301499999995
 11
-197.50004899999999
 21
-273.48002500000018
  0
LINE
  8
187
  6
CONTINUOUS
 62
     6
 10
-287.50002400000085
 20
-249.54002500000004
 11
-287.50002400000085
 21
-281.52002500000015
  0
LINE
  8
187
  6
CONTINUOUS
 62
     6
 10
-287.50002400000085
 20
-277.50002500000016
 11
-197.50004899999999
 21
-277.50002500000016
  0
LINE
  8
187
  6
CONTINUOUS
 62
     6
 10
-287.50002400000085
 20
-277.50002500000016
 11
-272.82780998899375
 21
-280.61870036226657
  0
LINE
  8
187
  6
CONTINUOUS
 62
     6
 10
-287.50002400000085
 20
-277.50002500000016
 11
-272.82780998899375
 21
-274.38134963773376
  0
LINE
  8
187
  6
CONTINUOUS
 62
     6
 10
-197.50004899999999
 20
-277.50002500000016
 11
-212.17226301100709
 21
-274.38134963773376
  0
LINE
  8
187
  6
CONTINUOUS
 62
     6
 10
-197.50004899999999
 20
-277.50002500000016
 11
-212.17226301100709
 21
-280.61870036226657
  0
TEXT
  8
187
  6
CONTINUOUS
 62
     96
 10
-256.9000365000004
 20
-275.52002500000015
 11
-228.10003650000041
 21
-275.52002500000015
 40
 18
 41
 0.8
  1
90
 50
 0
 72
  5
  0
LINE
  8
187
  6
CONTINUOUS
 62
     6
 10
-291.52002399999992
 20
-241.50002500000016
 11
-328.45057996485065
 21
-241.50002500000016
  0
LINE
  8
187
  6
CONTINUOUS
 62
     6
 10
-210.02005500000018
 20
-143.99999400000019
 11
-328.45057996485065
 21
-143.99999400000019
  0
LINE
  8
187
  6
CONTINUOUS
 62
     6
 10
-324.43057996485061
 20
-241.50002500000016
 11
-324.43057996485061
 21
-143.99999400000019
  0
LINE
  8
187
  6
CONTINUOUS
 62
     6
 10
-324.43057996485061
 20
-241.50002500000016
 11
-321.31190460258421
 21
-226.82781098899306
  0
LINE
  8
187
  6
CONTINUOUS
 62
     6
 10
-324.43057996485061
 20
-241.50002500000016
 11
-327.54925532711701
 21
-226.82781098899306
  0
LINE
  8
187
  6
CONTINUOUS
 62
     6
 10
-324.43057996485061
 20
-143.99999400000019
 11
-327.54925532711701
 21
-158.67220801100729
  0
LINE
  8
187
  6
CONTINUOUS
 62
     6
 10
-324.43057996485061
 20
-143.99999400000019
 11
-321.31190460258421
 21
-158.67220801100729
  0
TEXT
  8
187
  6
CONTINUOUS
 62
     96
 10
-326.41057996485063
 20
-207.15000950000012
 11
-326.41057996485063
 21
-178.35000950000017
 40
 18
 41
 0.8
  1
97
 50
 90.000001535234517
 72
  5
  0
LINE
  8
187
  6
CONTINUOUS
 62
     6
 10
-210.02005500000018
 20
 1.0000000000000142
 11
-328.45057996485065
 21
 1.0000000000000142
  0
LINE
  8
187
  6
CONTINUOUS
 62
     6
 10
-324.43057996485061
 20
-143.99999400000019
 11
-324.43057996485061
 21
 1.0000000000000142
  0
LINE
  8
187
  6
CONTINUOUS
 62
     6
 10
-324.43057996485061
 20
-143.99999400000019
 11
-321.31190460258421
 21
-129.32777998899309
  0
LINE
  8
187
  6
CONTINUOUS
 62
     6
 10
-324.43057996485061
 20
-143.99999400000019
 11
-327.54925532711701
 21
-129.32777998899309
  0
LINE
  8
187
  6
CONTINUOUS
 62
     6
 10
-324.43057996485061
 20
 1.0000000000000142
 11
-327.54925532711701
 21
-13.672214011007071
  0
LINE
  8
187
  6
CONTINUOUS
 62
     6
 10
-324.43057996485061
 20
 1.0000000000000142
 11
-321.31190460258421
 21
-13.672214011007071
  0
TEXT
  8
187
  6
CONTINUOUS
 62
     96
 10
-326.41057996485063
 20
-93.099997000000116
 11
-326.41057996485063
 21
-49.89999700000007
 40
 18
 41
 0.8
  1
145
 50
 90.000001535234517
 72
  5
  0
TEXT
  8
209
  6
CONTINUOUS
 62
     96
 10
-451.64752608990278
 20
-467.46681398597889
 11
-106.04752608990276
 21
-467.46681398597889
 40
 24
 41
 0.8
  1
型式　　　５ＤＰ１－０．２－３０Ｓ４
 50
 0
 72
  5
  0
TEXT
  8
209
  6
CONTINUOUS
 62
     96
 10
-355.64752608990284
 20
-505.86681398597887
 11
-106.04752608990279
 21
-505.86681398597887
 40
 24
 41
 0.8
  1
吐出量　：　５ml／min
 50
 0
 72
  5
  0
TEXT
  8
209
  6
CONTINUOUS
 62
     96
 10
-355.64752608990284
 20
-544.26681398597884
 11
-163.64752608990278
 21
-544.26681398597884
 40
 24
 41
 0.8
  1
吐出圧　：　３ＭＰa
 50
 0
 72
  5
  0
LINE
  8
85
  6
CONTINUOUS
 62
     7
 10
-86.134451672688257
 20
-470.79074852461321
 11
-460.60797173363619
 21
-470.79074852461321
  0
LINE
  8
85
  6
CONTINUOUS
 62
     7
 10
-86.134451672688272
 20
-509.19074852461324
 11
-361.29472825465757
 21
-509.19074852461313
  0
LINE
  8
85
  6
CONTINUOUS
 62
     7
 10
-86.134451672688272
 20
-547.59074852461322
 11
-361.29472825465757
 21
-547.59074852461322
  0
LINE
  8
85
  6
CONTINUOUS
 62
     4
 10
 214.09716555898854
 20
 440.18523132810014
 11
 214.09716555898854
 21
 495.18520832809975
  0
CIRCLE
  8
0
  6
CONTINUOUS
 62
     3
 10
-197.50004899999999
 20
-71.5
 40
 27.499966000000427
  0
ENDSEC
  0
EOF
