  0
SECTION
  2
HEADER
  9
$INSBASE
 10
0.0
20
0.0
  9
$REGENMODE
 70
     1
  9
$DRAGMODE
 70
     1
  9
$DIMTAD
 70
     1
  9
$EXTMIN
 10
-210.000000
 20
-297.000000
 30
 0.0
  9
$EXTMAX
 10
210.000000
 20
297.000000
 30
 0.0
  9
$LUPREC
 70
    3
  9
$AUPREC
 70
    3
  9
$LTSCALE
 40
13.125000
  0
ENDSEC
  0
SECTION
  2
TABLES
  0
TABLE
  2
LTYPE
 70
     6
  0
LTYPE
  2
CONTINUOUS
 70
    64
  3
8;
 72
    65
 73
     0
 40
0.0
  0
LTYPE
  2
DASHED2
 70
    64
  3
_ _ _ _ _ _ _ _ _ _ _ _ _ _ _ _ _ _ _ _ _ _ 
 72
    65
 73
     2
 40
0.5
 49
0.25
 49
-0.25
  0
LTYPE
  2
DASHED
 70
    64
  3
__ __ __ __ __ __ __ __ __ __ __ __ __ __ __
 72
    65
 73
     2
 40
0.75
 49
0.5
 49
-0.25
  0
LTYPE
  2
DASHEDX2
 70
    64
  3
____  ____  ____  ____  ____  ____  ____  __
 72
    65
 73
     2
 40
1.5
 49
1.0
 49
-0.5
  0
LTYPE
  2
HIDDENX2
 70
    64
  3
____ ____ ____ ____ ____ ____ ____ ____ ____
 72
    65
 73
     2
 40
0.625
 49
0.5
 49
-0.125
  0
LTYPE
  2
CENTER
 70
    64
  3
____ _ ____ _ ____ _ ____ _ ____ _ ____ _ __
 72
    65
 73
     4
 40
2.0
 49
1.25
 49
-0.25
 49
0.25
 49
-0.25
  0
LTYPE
  2
CENTERX2
 70
    64
  3
________  __  ________  __  ________  __  __
 72
    65
 73
     4
 40
4.0
 49
2.5
 49
-0.5
 49
0.5
 49
-0.5
  0
LTYPE
  2
PHANTOM2
 70
    64
  3
___ _ _ ___ _ _ ___ _ _ ___ _ _ ___ _ _ ___ 
 72
    65
 73
     6
 40
1.25
 49
0.625
 49
-0.125
 49
0.125
 49
-0.125
 49
0.125
 49
-0.125
  0
LTYPE
  2
PHANTOM
 70
    64
  3
_____ _ _ _____ _ _ _____ _ _ _____ _ _ ____
 72
    65
 73
     6
 40
2.5
 49
1.25
 49
-0.25
 49
0.25
 49
-0.25
 49
0.25
 49
-0.25
  0
ENDTAB
  0
TABLE
  2
LAYER
 70
   255
  0
LAYER
  2
0
 70
    64
 62
     7
  6
CONTINUOUS
  0
LAYER
  2
1
 70
    64
 62
     7
  6
CONTINUOUS
  0
LAYER
  2
2
 70
    64
 62
     7
  6
CONTINUOUS
  0
LAYER
  2
3
 70
    64
 62
     7
  6
CONTINUOUS
  0
LAYER
  2
4
 70
    64
 62
     7
  6
CONTINUOUS
  0
LAYER
  2
5
 70
    64
 62
     7
  6
CONTINUOUS
  0
LAYER
  2
6
 70
    64
 62
     7
  6
CONTINUOUS
  0
LAYER
  2
7
 70
    64
 62
     7
  6
CONTINUOUS
  0
LAYER
  2
8
 70
    64
 62
     7
  6
CONTINUOUS
  0
LAYER
  2
9
 70
    64
 62
     7
  6
CONTINUOUS
  0
LAYER
  2
10
 70
    64
 62
     7
  6
CONTINUOUS
  0
LAYER
  2
11
 70
    64
 62
     7
  6
CONTINUOUS
  0
LAYER
  2
12
 70
    64
 62
     7
  6
CONTINUOUS
  0
LAYER
  2
13
 70
    64
 62
     7
  6
CONTINUOUS
  0
LAYER
  2
14
 70
    64
 62
     7
  6
CONTINUOUS
  0
LAYER
  2
15
 70
    64
 62
     7
  6
CONTINUOUS
  0
LAYER
  2
16
 70
    64
 62
     7
  6
CONTINUOUS
  0
LAYER
  2
17
 70
    64
 62
     7
  6
CONTINUOUS
  0
LAYER
  2
18
 70
    64
 62
     7
  6
CONTINUOUS
  0
LAYER
  2
19
 70
    64
 62
     7
  6
CONTINUOUS
  0
LAYER
  2
20
 70
    64
 62
     7
  6
CONTINUOUS
  0
LAYER
  2
21
 70
    64
 62
     7
  6
CONTINUOUS
  0
LAYER
  2
22
 70
    64
 62
     7
  6
CONTINUOUS
  0
LAYER
  2
23
 70
    64
 62
     7
  6
CONTINUOUS
  0
LAYER
  2
24
 70
    64
 62
     7
  6
CONTINUOUS
  0
LAYER
  2
25
 70
    64
 62
     7
  6
CONTINUOUS
  0
LAYER
  2
26
 70
    64
 62
     7
  6
CONTINUOUS
  0
LAYER
  2
27
 70
    64
 62
     7
  6
CONTINUOUS
  0
LAYER
  2
28
 70
    64
 62
     7
  6
CONTINUOUS
  0
LAYER
  2
29
 70
    64
 62
     7
  6
CONTINUOUS
  0
LAYER
  2
30
 70
    64
 62
     7
  6
CONTINUOUS
  0
LAYER
  2
31
 70
    64
 62
     7
  6
CONTINUOUS
  0
LAYER
  2
32
 70
    64
 62
     7
  6
CONTINUOUS
  0
LAYER
  2
33
 70
    64
 62
     7
  6
CONTINUOUS
  0
LAYER
  2
34
 70
    64
 62
     7
  6
CONTINUOUS
  0
LAYER
  2
35
 70
    64
 62
     7
  6
CONTINUOUS
  0
LAYER
  2
36
 70
    64
 62
     7
  6
CONTINUOUS
  0
LAYER
  2
37
 70
    64
 62
     7
  6
CONTINUOUS
  0
LAYER
  2
38
 70
    64
 62
     7
  6
CONTINUOUS
  0
LAYER
  2
39
 70
    64
 62
     7
  6
CONTINUOUS
  0
LAYER
  2
40
 70
    64
 62
     7
  6
CONTINUOUS
  0
LAYER
  2
41
 70
    64
 62
     7
  6
CONTINUOUS
  0
LAYER
  2
42
 70
    64
 62
     7
  6
CONTINUOUS
  0
LAYER
  2
43
 70
    64
 62
     7
  6
CONTINUOUS
  0
LAYER
  2
44
 70
    64
 62
     7
  6
CONTINUOUS
  0
LAYER
  2
45
 70
    64
 62
     7
  6
CONTINUOUS
  0
LAYER
  2
46
 70
    64
 62
     7
  6
CONTINUOUS
  0
LAYER
  2
47
 70
    64
 62
     7
  6
CONTINUOUS
  0
LAYER
  2
48
 70
    64
 62
     7
  6
CONTINUOUS
  0
LAYER
  2
49
 70
    64
 62
     7
  6
CONTINUOUS
  0
LAYER
  2
50
 70
    64
 62
     7
  6
CONTINUOUS
  0
LAYER
  2
51
 70
    64
 62
     7
  6
CONTINUOUS
  0
LAYER
  2
52
 70
    64
 62
     7
  6
CONTINUOUS
  0
LAYER
  2
53
 70
    64
 62
     7
  6
CONTINUOUS
  0
LAYER
  2
54
 70
    64
 62
     7
  6
CONTINUOUS
  0
LAYER
  2
55
 70
    64
 62
     7
  6
CONTINUOUS
  0
LAYER
  2
56
 70
    64
 62
     7
  6
CONTINUOUS
  0
LAYER
  2
57
 70
    64
 62
     7
  6
CONTINUOUS
  0
LAYER
  2
58
 70
    64
 62
     7
  6
CONTINUOUS
  0
LAYER
  2
59
 70
    64
 62
     7
  6
CONTINUOUS
  0
LAYER
  2
60
 70
    64
 62
     7
  6
CONTINUOUS
  0
LAYER
  2
61
 70
    64
 62
     7
  6
CONTINUOUS
  0
LAYER
  2
62
 70
    64
 62
     7
  6
CONTINUOUS
  0
LAYER
  2
63
 70
    64
 62
     7
  6
CONTINUOUS
  0
LAYER
  2
64
 70
    64
 62
     7
  6
CONTINUOUS
  0
LAYER
  2
65
 70
    64
 62
     7
  6
CONTINUOUS
  0
LAYER
  2
66
 70
    64
 62
     7
  6
CONTINUOUS
  0
LAYER
  2
67
 70
    64
 62
     7
  6
CONTINUOUS
  0
LAYER
  2
68
 70
    64
 62
     7
  6
CONTINUOUS
  0
LAYER
  2
69
 70
    64
 62
     7
  6
CONTINUOUS
  0
LAYER
  2
70
 70
    64
 62
     7
  6
CONTINUOUS
  0
LAYER
  2
71
 70
    64
 62
     7
  6
CONTINUOUS
  0
LAYER
  2
72
 70
    64
 62
     7
  6
CONTINUOUS
  0
LAYER
  2
73
 70
    64
 62
     7
  6
CONTINUOUS
  0
LAYER
  2
74
 70
    64
 62
     7
  6
CONTINUOUS
  0
LAYER
  2
75
 70
    64
 62
     7
  6
CONTINUOUS
  0
LAYER
  2
76
 70
    64
 62
     7
  6
CONTINUOUS
  0
LAYER
  2
77
 70
    64
 62
     7
  6
CONTINUOUS
  0
LAYER
  2
78
 70
    64
 62
     7
  6
CONTINUOUS
  0
LAYER
  2
79
 70
    64
 62
     7
  6
CONTINUOUS
  0
LAYER
  2
80
 70
    64
 62
     7
  6
CONTINUOUS
  0
LAYER
  2
81
 70
    64
 62
     7
  6
CONTINUOUS
  0
LAYER
  2
82
 70
    64
 62
     7
  6
CONTINUOUS
  0
LAYER
  2
83
 70
    64
 62
     7
  6
CONTINUOUS
  0
LAYER
  2
84
 70
    64
 62
     7
  6
CONTINUOUS
  0
LAYER
  2
85
 70
    64
 62
     7
  6
CONTINUOUS
  0
LAYER
  2
86
 70
    64
 62
     7
  6
CONTINUOUS
  0
LAYER
  2
87
 70
    64
 62
     7
  6
CONTINUOUS
  0
LAYER
  2
88
 70
    64
 62
     7
  6
CONTINUOUS
  0
LAYER
  2
89
 70
    64
 62
     7
  6
CONTINUOUS
  0
LAYER
  2
90
 70
    64
 62
     7
  6
CONTINUOUS
  0
LAYER
  2
91
 70
    64
 62
     7
  6
CONTINUOUS
  0
LAYER
  2
92
 70
    64
 62
     7
  6
CONTINUOUS
  0
LAYER
  2
93
 70
    64
 62
     7
  6
CONTINUOUS
  0
LAYER
  2
94
 70
    64
 62
     7
  6
CONTINUOUS
  0
LAYER
  2
95
 70
    64
 62
     7
  6
CONTINUOUS
  0
LAYER
  2
96
 70
    64
 62
     7
  6
CONTINUOUS
  0
LAYER
  2
97
 70
    64
 62
     7
  6
CONTINUOUS
  0
LAYER
  2
98
 70
    64
 62
     7
  6
CONTINUOUS
  0
LAYER
  2
99
 70
    64
 62
     7
  6
CONTINUOUS
  0
LAYER
  2
100
 70
    64
 62
     7
  6
CONTINUOUS
  0
LAYER
  2
101
 70
    64
 62
     7
  6
CONTINUOUS
  0
LAYER
  2
102
 70
    64
 62
     7
  6
CONTINUOUS
  0
LAYER
  2
103
 70
    64
 62
     7
  6
CONTINUOUS
  0
LAYER
  2
104
 70
    64
 62
     7
  6
CONTINUOUS
  0
LAYER
  2
105
 70
    64
 62
     7
  6
CONTINUOUS
  0
LAYER
  2
106
 70
    64
 62
     7
  6
CONTINUOUS
  0
LAYER
  2
107
 70
    64
 62
     7
  6
CONTINUOUS
  0
LAYER
  2
108
 70
    64
 62
     7
  6
CONTINUOUS
  0
LAYER
  2
109
 70
    64
 62
     7
  6
CONTINUOUS
  0
LAYER
  2
110
 70
    64
 62
     7
  6
CONTINUOUS
  0
LAYER
  2
111
 70
    64
 62
     7
  6
CONTINUOUS
  0
LAYER
  2
112
 70
    64
 62
     7
  6
CONTINUOUS
  0
LAYER
  2
113
 70
    64
 62
     7
  6
CONTINUOUS
  0
LAYER
  2
114
 70
    64
 62
     7
  6
CONTINUOUS
  0
LAYER
  2
115
 70
    64
 62
     7
  6
CONTINUOUS
  0
LAYER
  2
116
 70
    64
 62
     7
  6
CONTINUOUS
  0
LAYER
  2
117
 70
    64
 62
     7
  6
CONTINUOUS
  0
LAYER
  2
118
 70
    64
 62
     7
  6
CONTINUOUS
  0
LAYER
  2
119
 70
    64
 62
     7
  6
CONTINUOUS
  0
LAYER
  2
120
 70
    64
 62
     7
  6
CONTINUOUS
  0
LAYER
  2
121
 70
    64
 62
     7
  6
CONTINUOUS
  0
LAYER
  2
122
 70
    64
 62
     7
  6
CONTINUOUS
  0
LAYER
  2
123
 70
    64
 62
     7
  6
CONTINUOUS
  0
LAYER
  2
124
 70
    64
 62
     7
  6
CONTINUOUS
  0
LAYER
  2
125
 70
    64
 62
     7
  6
CONTINUOUS
  0
LAYER
  2
126
 70
    64
 62
     7
  6
CONTINUOUS
  0
LAYER
  2
127
 70
    64
 62
     7
  6
CONTINUOUS
  0
LAYER
  2
128
 70
    64
 62
     7
  6
CONTINUOUS
  0
LAYER
  2
129
 70
    64
 62
     7
  6
CONTINUOUS
  0
LAYER
  2
130
 70
    64
 62
     7
  6
CONTINUOUS
  0
LAYER
  2
131
 70
    64
 62
     7
  6
CONTINUOUS
  0
LAYER
  2
132
 70
    64
 62
     7
  6
CONTINUOUS
  0
LAYER
  2
133
 70
    64
 62
     7
  6
CONTINUOUS
  0
LAYER
  2
134
 70
    64
 62
     7
  6
CONTINUOUS
  0
LAYER
  2
135
 70
    64
 62
     7
  6
CONTINUOUS
  0
LAYER
  2
136
 70
    64
 62
     7
  6
CONTINUOUS
  0
LAYER
  2
137
 70
    64
 62
     7
  6
CONTINUOUS
  0
LAYER
  2
138
 70
    64
 62
     7
  6
CONTINUOUS
  0
LAYER
  2
139
 70
    64
 62
     7
  6
CONTINUOUS
  0
LAYER
  2
140
 70
    64
 62
     7
  6
CONTINUOUS
  0
LAYER
  2
141
 70
    64
 62
     7
  6
CONTINUOUS
  0
LAYER
  2
142
 70
    64
 62
     7
  6
CONTINUOUS
  0
LAYER
  2
143
 70
    64
 62
     7
  6
CONTINUOUS
  0
LAYER
  2
144
 70
    64
 62
     7
  6
CONTINUOUS
  0
LAYER
  2
145
 70
    64
 62
     7
  6
CONTINUOUS
  0
LAYER
  2
146
 70
    64
 62
     7
  6
CONTINUOUS
  0
LAYER
  2
147
 70
    64
 62
     7
  6
CONTINUOUS
  0
LAYER
  2
148
 70
    64
 62
     7
  6
CONTINUOUS
  0
LAYER
  2
149
 70
    64
 62
     7
  6
CONTINUOUS
  0
LAYER
  2
150
 70
    64
 62
     7
  6
CONTINUOUS
  0
LAYER
  2
151
 70
    64
 62
     7
  6
CONTINUOUS
  0
LAYER
  2
152
 70
    64
 62
     7
  6
CONTINUOUS
  0
LAYER
  2
153
 70
    64
 62
     7
  6
CONTINUOUS
  0
LAYER
  2
154
 70
    64
 62
     7
  6
CONTINUOUS
  0
LAYER
  2
155
 70
    64
 62
     7
  6
CONTINUOUS
  0
LAYER
  2
156
 70
    64
 62
     7
  6
CONTINUOUS
  0
LAYER
  2
157
 70
    64
 62
     7
  6
CONTINUOUS
  0
LAYER
  2
158
 70
    64
 62
     7
  6
CONTINUOUS
  0
LAYER
  2
159
 70
    64
 62
     7
  6
CONTINUOUS
  0
LAYER
  2
160
 70
    64
 62
     7
  6
CONTINUOUS
  0
LAYER
  2
161
 70
    64
 62
     7
  6
CONTINUOUS
  0
LAYER
  2
162
 70
    64
 62
     7
  6
CONTINUOUS
  0
LAYER
  2
163
 70
    64
 62
     7
  6
CONTINUOUS
  0
LAYER
  2
164
 70
    64
 62
     7
  6
CONTINUOUS
  0
LAYER
  2
165
 70
    64
 62
     7
  6
CONTINUOUS
  0
LAYER
  2
166
 70
    64
 62
     7
  6
CONTINUOUS
  0
LAYER
  2
167
 70
    64
 62
     7
  6
CONTINUOUS
  0
LAYER
  2
168
 70
    64
 62
     7
  6
CONTINUOUS
  0
LAYER
  2
169
 70
    64
 62
     7
  6
CONTINUOUS
  0
LAYER
  2
170
 70
    64
 62
     7
  6
CONTINUOUS
  0
LAYER
  2
171
 70
    64
 62
     7
  6
CONTINUOUS
  0
LAYER
  2
172
 70
    64
 62
     7
  6
CONTINUOUS
  0
LAYER
  2
173
 70
    64
 62
     7
  6
CONTINUOUS
  0
LAYER
  2
174
 70
    64
 62
     7
  6
CONTINUOUS
  0
LAYER
  2
175
 70
    64
 62
     7
  6
CONTINUOUS
  0
LAYER
  2
176
 70
    64
 62
     7
  6
CONTINUOUS
  0
LAYER
  2
177
 70
    64
 62
     7
  6
CONTINUOUS
  0
LAYER
  2
178
 70
    64
 62
     7
  6
CONTINUOUS
  0
LAYER
  2
179
 70
    64
 62
     7
  6
CONTINUOUS
  0
LAYER
  2
180
 70
    64
 62
     7
  6
CONTINUOUS
  0
LAYER
  2
181
 70
    64
 62
     7
  6
CONTINUOUS
  0
LAYER
  2
182
 70
    64
 62
     7
  6
CONTINUOUS
  0
LAYER
  2
183
 70
    64
 62
     7
  6
CONTINUOUS
  0
LAYER
  2
184
 70
    64
 62
     7
  6
CONTINUOUS
  0
LAYER
  2
185
 70
    64
 62
     7
  6
CONTINUOUS
  0
LAYER
  2
186
 70
    64
 62
     7
  6
CONTINUOUS
  0
LAYER
  2
187
 70
    64
 62
     7
  6
CONTINUOUS
  0
LAYER
  2
188
 70
    64
 62
     7
  6
CONTINUOUS
  0
LAYER
  2
189
 70
    64
 62
     7
  6
CONTINUOUS
  0
LAYER
  2
190
 70
    64
 62
     7
  6
CONTINUOUS
  0
LAYER
  2
191
 70
    64
 62
     7
  6
CONTINUOUS
  0
LAYER
  2
192
 70
    64
 62
     7
  6
CONTINUOUS
  0
LAYER
  2
193
 70
    64
 62
     7
  6
CONTINUOUS
  0
LAYER
  2
194
 70
    64
 62
     7
  6
CONTINUOUS
  0
LAYER
  2
195
 70
    64
 62
     7
  6
CONTINUOUS
  0
LAYER
  2
196
 70
    64
 62
     7
  6
CONTINUOUS
  0
LAYER
  2
197
 70
    64
 62
     7
  6
CONTINUOUS
  0
LAYER
  2
198
 70
    64
 62
     7
  6
CONTINUOUS
  0
LAYER
  2
199
 70
    64
 62
     7
  6
CONTINUOUS
  0
LAYER
  2
200
 70
    64
 62
     7
  6
CONTINUOUS
  0
LAYER
  2
201
 70
    64
 62
     7
  6
CONTINUOUS
  0
LAYER
  2
202
 70
    64
 62
     7
  6
CONTINUOUS
  0
LAYER
  2
203
 70
    64
 62
     7
  6
CONTINUOUS
  0
LAYER
  2
204
 70
    64
 62
     7
  6
CONTINUOUS
  0
LAYER
  2
205
 70
    64
 62
     7
  6
CONTINUOUS
  0
LAYER
  2
206
 70
    64
 62
     7
  6
CONTINUOUS
  0
LAYER
  2
207
 70
    64
 62
     7
  6
CONTINUOUS
  0
LAYER
  2
208
 70
    64
 62
     7
  6
CONTINUOUS
  0
LAYER
  2
209
 70
    64
 62
     7
  6
CONTINUOUS
  0
LAYER
  2
210
 70
    64
 62
     7
  6
CONTINUOUS
  0
LAYER
  2
211
 70
    64
 62
     7
  6
CONTINUOUS
  0
LAYER
  2
212
 70
    64
 62
     7
  6
CONTINUOUS
  0
LAYER
  2
213
 70
    64
 62
     7
  6
CONTINUOUS
  0
LAYER
  2
214
 70
    64
 62
     7
  6
CONTINUOUS
  0
LAYER
  2
215
 70
    64
 62
     7
  6
CONTINUOUS
  0
LAYER
  2
216
 70
    64
 62
     7
  6
CONTINUOUS
  0
LAYER
  2
217
 70
    64
 62
     7
  6
CONTINUOUS
  0
LAYER
  2
218
 70
    64
 62
     7
  6
CONTINUOUS
  0
LAYER
  2
219
 70
    64
 62
     7
  6
CONTINUOUS
  0
LAYER
  2
220
 70
    64
 62
     7
  6
CONTINUOUS
  0
LAYER
  2
221
 70
    64
 62
     7
  6
CONTINUOUS
  0
LAYER
  2
222
 70
    64
 62
     7
  6
CONTINUOUS
  0
LAYER
  2
223
 70
    64
 62
     7
  6
CONTINUOUS
  0
LAYER
  2
224
 70
    64
 62
     7
  6
CONTINUOUS
  0
LAYER
  2
225
 70
    64
 62
     7
  6
CONTINUOUS
  0
LAYER
  2
226
 70
    64
 62
     7
  6
CONTINUOUS
  0
LAYER
  2
227
 70
    64
 62
     7
  6
CONTINUOUS
  0
LAYER
  2
228
 70
    64
 62
     7
  6
CONTINUOUS
  0
LAYER
  2
229
 70
    64
 62
     7
  6
CONTINUOUS
  0
LAYER
  2
230
 70
    64
 62
     7
  6
CONTINUOUS
  0
LAYER
  2
231
 70
    64
 62
     7
  6
CONTINUOUS
  0
LAYER
  2
232
 70
    64
 62
     7
  6
CONTINUOUS
  0
LAYER
  2
233
 70
    64
 62
     7
  6
CONTINUOUS
  0
LAYER
  2
234
 70
    64
 62
     7
  6
CONTINUOUS
  0
LAYER
  2
235
 70
    64
 62
     7
  6
CONTINUOUS
  0
LAYER
  2
236
 70
    64
 62
     7
  6
CONTINUOUS
  0
LAYER
  2
237
 70
    64
 62
     7
  6
CONTINUOUS
  0
LAYER
  2
238
 70
    64
 62
     7
  6
CONTINUOUS
  0
LAYER
  2
239
 70
    64
 62
     7
  6
CONTINUOUS
  0
LAYER
  2
240
 70
    64
 62
     7
  6
CONTINUOUS
  0
LAYER
  2
241
 70
    64
 62
     7
  6
CONTINUOUS
  0
LAYER
  2
242
 70
    64
 62
     7
  6
CONTINUOUS
  0
LAYER
  2
243
 70
    64
 62
     7
  6
CONTINUOUS
  0
LAYER
  2
244
 70
    64
 62
     7
  6
CONTINUOUS
  0
LAYER
  2
245
 70
    64
 62
     7
  6
CONTINUOUS
  0
LAYER
  2
246
 70
    64
 62
     7
  6
CONTINUOUS
  0
LAYER
  2
247
 70
    64
 62
     7
  6
CONTINUOUS
  0
LAYER
  2
248
 70
    64
 62
     7
  6
CONTINUOUS
  0
LAYER
  2
249
 70
    64
 62
     7
  6
CONTINUOUS
  0
LAYER
  2
250
 70
    64
 62
     7
  6
CONTINUOUS
  0
LAYER
  2
251
 70
    64
 62
     7
  6
CONTINUOUS
  0
LAYER
  2
252
 70
    64
 62
     7
  6
CONTINUOUS
  0
LAYER
  2
253
 70
    64
 62
     7
  6
CONTINUOUS
  0
LAYER
  2
254
 70
    64
 62
     7
  6
CONTINUOUS
  0
LAYER
  2
255
 70
    64
 62
     7
  6
CONTINUOUS
  0
ENDTAB
  0
TABLE
  2
STYLE
 70
     2
  0
STYLE
  2
STANDARD
 70
    64
 40
0.0
 41
1.0
 50
0.0
 71
     0
 42
3.000000
  3
TXT
  4
BIGFONT
  0
ENDTAB
  0
ENDSEC
  0
SECTION
  2
BLOCKS
  0
BLOCK
  8
0
  2
CADWIN-G0
 70
    0
 10
0.0
 20
0.0
  0
LINE
  8
0
  6
CONTINUOUS
 62
     3
 10
 28.156592139673215
 20
 135.1227211672784
 11
 28.156592139673215
 21
 145.1227211672784
  0
LINE
  8
0
  6
CONTINUOUS
 62
     3
 10
 28.156592139673215
 20
 145.1227211672784
 11
 38.156592139673215
 21
 145.1227211672784
  0
LINE
  8
0
  6
CONTINUOUS
 62
     3
 10
 38.156592139673215
 20
 145.1227211672784
 11
 38.156592139673215
 21
 135.1227211672784
  0
LINE
  8
0
  6
CONTINUOUS
 62
     3
 10
 38.156592139673215
 20
 135.1227211672784
 11
 28.156592139673215
 21
 135.1227211672784
  0
ENDBLK
  8
0
  0
BLOCK
  8
0
  2
CADWIN-G1
 70
    0
 10
0.0
 20
0.0
  0
LINE
  8
0
  6
CONTINUOUS
 62
     4
 10
-2.5933878603263807
 20
 191.12272116727837
 11
-2.5933878603263807
 21
 194.63197343846718
  0
LINE
  8
0
  6
CONTINUOUS
 62
     4
 10
-5.480139206274508
 20
 191.12272116727837
 11
-5.480139206274508
 21
 194.63197343846718
  0
LINE
  8
0
  6
CONTINUOUS
 62
     4
 10
-2.5933878603263807
 20
 191.12272116727837
 11
-14.093387860326381
 21
 191.12272116727837
  0
LINE
  8
0
  6
CONTINUOUS
 62
     4
 10
-4.0367635333004444
 20
 195.12272116727837
 11
-12.650012187352324
 21
 195.12272116727837
  0
LINE
  8
0
  6
CONTINUOUS
 62
     4
 10
-14.093387860326381
 20
 191.12272116727837
 11
-14.093387860326381
 21
 194.63197343846718
  0
LINE
  8
0
  6
CONTINUOUS
 62
     4
 10
-11.206636514378253
 20
 191.12272116727837
 11
-11.206636514378253
 21
 194.63197343846718
  0
ARC
  8
0
  6
CONTINUOUS
 62
     4
 10
-4.0367635333004444
 20
 192.75473601908743
 40
 2.3679851481909666
 50
 52.443934449705765
 51
 127.55606862076327
  0
ARC
  8
0
  6
CONTINUOUS
 62
     4
 10
-12.650012187352324
 20
 192.75473601908743
 40
 2.3679851481909666
 50
 52.443934449705765
 51
 127.55606862076327
  0
ARC
  8
0
  6
CONTINUOUS
 62
     4
 10
-8.3433878603263807
 20
 186.52459050582183
 40
 8.5981306614565618
 50
 70.548533640263244
 51
 109.45146943020578
  0
LINE
  8
0
  6
CONTINUOUS
 62
     4
 10
-5.3433878603263807
 20
 190.87272116727837
 11
-5.3433878603263807
 21
 167.12272116727837
  0
LINE
  8
0
  6
CONTINUOUS
 62
     7
 10
-5.3433878603263807
 20
 190.87272116727837
 11
-5.8433878603263807
 21
 190.00669576349395
  0
LINE
  8
0
  6
CONTINUOUS
 62
     7
 10
-5.8433878603263807
 20
 190.00669576349395
 11
-5.8433878603263807
 21
 166.62272116727837
  0
LINE
  8
0
  6
CONTINUOUS
 62
     4
 10
-5.3433878603263807
 20
 167.12272116727837
 11
-11.343387860326381
 21
 167.12272116727837
  0
LINE
  8
0
  6
CONTINUOUS
 62
     4
 10
-5.3433878603263807
 20
 190.00669576349395
 11
-11.343387860326381
 21
 190.00669576349395
  0
LINE
  8
0
  6
CONTINUOUS
 62
     4
 10
-11.343387860326381
 20
 190.87272116727837
 11
-11.343387860326381
 21
 167.12272116727837
  0
LINE
  8
0
  6
CONTINUOUS
 62
     7
 10
-11.343387860326381
 20
 190.87272116727837
 11
-10.843387860326381
 21
 190.00669576349395
  0
LINE
  8
0
  6
CONTINUOUS
 62
     7
 10
-10.843387860326381
 20
 190.00669576349395
 11
-10.843387860326381
 21
 166.62272116727837
  0
ARC
  8
0
  6
CONTINUOUS
 62
     4
 10
-5.0933878603263807
 20
 190.87272116727837
 40
 0.25
 50
 90.000001535234517
 51
 180.00000307046903
  0
ARC
  8
0
  6
CONTINUOUS
 62
     4
 10
-11.593387860326381
 20
 190.87272116727837
 40
 0.25
 50
 0
 51
 90.000001535234517
  0
LINE
  8
0
  6
CONTINUOUS
 62
     4
 10
-6.3433878603263807
 20
 166.12272116727837
 11
-10.343387860326381
 21
 166.12272116727837
  0
LINE
  8
0
  6
CONTINUOUS
 62
     4
 10
-5.3433878603263807
 20
 167.12272116727837
 11
-6.3433878603263807
 21
 166.12272116727837
  0
LINE
  8
0
  6
CONTINUOUS
 62
     4
 10
-11.343387860326381
 20
 167.12272116727837
 11
-10.343387860326381
 21
 166.12272116727837
  0
ENDBLK
  8
0
  0
BLOCK
  8
0
  2
CADWIN-G2
 70
    0
 10
0.0
 20
0.0
  0
LINE
  8
192
  6
CONTINUOUS
 62
     7
 10
-51.736785137253477
 20
 156.12272116727837
 11
-51.736785137253477
 21
 218.49638345465252
  0
LINE
  8
192
  6
CONTINUOUS
 62
     7
 10
-51.736785137253477
 20
 156.12272116727837
 11
-50.697226683164679
 21
 161.01345917094739
  0
LINE
  8
192
  6
CONTINUOUS
 62
     7
 10
-51.736785137253477
 20
 156.12272116727837
 11
-52.776343591342275
 21
 161.01345917094739
  0
CIRCLE
  8
192
  6
CONTINUOUS
 62
     7
 10
-51.736785137253477
 20
 224.15677213388648
 40
 5.6603886792339626
  0
TEXT
  8
192
  6
CONTINUOUS
 62
     56
 10
-54.136785137253476
 20
 221.15677213388648
 11
-49.336785137253479
 21
 221.15677213388648
 40
 6
 41
 0.8
  1
7
 50
 0
 72
  5
  0
ENDBLK
  8
0
  0
BLOCK
  8
0
  2
CADWIN-G3
 70
    0
 10
0.0
 20
0.0
  0
LINE
  8
192
  6
CONTINUOUS
 62
     7
 10
-42.966723524045989
 20
 156.12272116727837
 11
-36.220079994343266
 21
 218.52917381703011
  0
LINE
  8
192
  6
CONTINUOUS
 62
     7
 10
-42.966723524045989
 20
 156.12272116727837
 11
-41.407521648467139
 21
 160.87339369979327
  0
LINE
  8
192
  6
CONTINUOUS
 62
     7
 10
-42.966723524045989
 20
 156.12272116727837
 11
-43.474594331290618
 21
 161.09686101685526
  0
CIRCLE
  8
192
  6
CONTINUOUS
 62
     7
 10
-35.611690987115566
 20
 224.15677213388648
 40
 5.6603886792339626
  0
TEXT
  8
192
  6
CONTINUOUS
 62
     56
 10
-38.011690987115564
 20
 221.15677213388648
 11
-33.211690987115567
 21
 221.15677213388648
 40
 6
 41
 0.8
  1
8
 50
 0
 72
  5
  0
ENDBLK
  8
0
  0
BLOCK
  8
0
  2
CADWIN-G4
 70
    0
 10
0.0
 20
0.0
  0
LINE
  8
192
  6
CONTINUOUS
 62
     7
 10
-14.82823630471519
 20
 156.12272116727837
 11
-29.878324178177401
 21
 181.51485649241025
  0
LINE
  8
192
  6
CONTINUOUS
 62
     7
 10
-14.82823630471519
 20
 156.12272116727837
 11
-16.427622828954853
 21
 160.86001604369051
  0
LINE
  8
192
  6
CONTINUOUS
 62
     7
 10
-14.82823630471519
 20
 156.12272116727837
 11
-18.216180014241175
 21
 159.79992627728834
  0
LINE
  8
192
  6
CONTINUOUS
 62
     7
 10
-29.878324178177401
 20
 181.51485649241025
 11
-22.083691801557627
 21
 218.61730660512112
  0
CIRCLE
  8
192
  6
CONTINUOUS
 62
     7
 10
-20.919938539211984
 20
 224.15677213388648
 40
 5.6603886792339626
  0
TEXT
  8
192
  6
CONTINUOUS
 62
     56
 10
-23.319938539211982
 20
 221.15677213388648
 11
-18.519938539211985
 21
 221.15677213388648
 40
 6
 41
 0.8
  1
9
 50
 0
 72
  5
  0
ENDBLK
  8
0
  0
BLOCK
  8
0
  2
CADWIN-G5
 70
    0
 10
0.0
 20
0.0
  0
LINE
  8
192
  6
CONTINUOUS
 62
     7
 10
 10.730036924691584
 20
 180.12272116727837
 11
 17.063616570002367
 21
 194.05659638696207
  0
LINE
  8
192
  6
CONTINUOUS
 62
     7
 10
 10.730036924691584
 20
 180.12272116727837
 11
 13.700217878380814
 21
 184.14491274679591
  0
LINE
  8
192
  6
CONTINUOUS
 62
     7
 10
 10.730036924691584
 20
 180.12272116727837
 11
 11.807459542450237
 21
 185.00525744494615
  0
LINE
  8
192
  6
CONTINUOUS
 62
     7
 10
 17.063616570002367
 20
 194.05659638696207
 11
 22.919262870533508
 21
 218.65031084919298
  0
CIRCLE
  8
192
  6
CONTINUOUS
 62
     7
 10
 24.230325081174811
 20
 224.15677213388648
 40
 5.6603886792339626
  0
TEXT
  8
192
  6
CONTINUOUS
 62
     56
 10
 19.430325081174811
 20
 221.15677213388648
 11
 29.030325081174809
 21
 221.15677213388648
 40
 6
 41
 0.8
  1
10
 50
 0
 72
  5
  0
ENDBLK
  8
0
  0
BLOCK
  8
0
  2
CADWIN-G6
 70
    0
 10
0.0
 20
0.0
  0
LINE
  8
192
  6
CONTINUOUS
 62
     7
 10
 27.455343911202466
 20
 166.12272116727837
 11
 34.263716996816328
 21
 176.13982510903088
  0
LINE
  8
192
  6
CONTINUOUS
 62
     7
 10
 27.455343911202466
 20
 166.12272116727837
 11
 31.064323771673791
 21
 169.58325065952553
  0
LINE
  8
192
  6
CONTINUOUS
 62
     7
 10
 27.455343911202466
 20
 166.12272116727837
 11
 29.344786920518267
 21
 170.7519765193353
  0
LINE
  8
192
  6
CONTINUOUS
 62
     7
 10
 34.263716996816328
 20
 176.13982510903088
 11
 39.009055722561797
 21
 218.53151772569106
  0
CIRCLE
  8
192
  6
CONTINUOUS
 62
     7
 10
 39.638748380195608
 20
 224.15677213388648
 40
 5.6603886792339626
  0
TEXT
  8
192
  6
CONTINUOUS
 62
     56
 10
 34.838748380195611
 20
 221.15677213388648
 11
 44.438748380195605
 21
 221.15677213388648
 40
 6
 41
 0.8
  1
11
 50
 0
 72
  5
  0
ENDBLK
  8
0
  0
BLOCK
  8
0
  2
CADWIN-G7
 70
    0
 10
0.0
 20
0.0
  0
LINE
  8
192
  6
CONTINUOUS
 62
     7
 10
 42.156592139673215
 20
 165.03142691671351
 11
 49.313804870278538
 21
 178.64817308794122
  0
LINE
  8
192
  6
CONTINUOUS
 62
     7
 10
 42.156592139673215
 20
 165.03142691671351
 11
 45.352260036911218
 21
 168.87690565031255
  0
LINE
  8
192
  6
CONTINUOUS
 62
     7
 10
 42.156592139673215
 20
 165.03142691671351
 11
 43.511882920205828
 21
 169.84424177916182
  0
LINE
  8
192
  6
CONTINUOUS
 62
     7
 10
 49.313804870278538
 20
 178.64817308794122
 11
 53.395767423696356
 21
 218.52580726363698
  0
CIRCLE
  8
192
  6
CONTINUOUS
 62
     7
 10
 53.97216540254081
 20
 224.15677213388648
 40
 5.6603886792339626
  0
TEXT
  8
192
  6
CONTINUOUS
 62
     56
 10
 49.172165402540813
 20
 221.15677213388648
 11
 58.772165402540814
 21
 221.15677213388648
 40
 6
 41
 0.8
  1
12
 50
 0
 72
  5
  0
ENDBLK
  8
0
  0
BLOCK
  8
0
  2
CADWIN-G8
 70
    0
 10
0.0
 20
0.0
  0
LINE
  8
192
  6
CONTINUOUS
 62
     7
 10
-60.693067606980541
 20
 134.87664843508972
 11
-41.772878270636014
 21
 42.055186142149282
  0
POINT
  8
192
  6
CONTINUOUS
 62
     7
 10
-60.693067606980541
 20
 134.87664843508972
  0
CIRCLE
  8
192
  6
CONTINUOUS
 62
     7
 10
-40.642344340791482
 20
 36.508845633897892
 40
 5.6603886792339626
  0
TEXT
  8
192
  6
CONTINUOUS
 62
     56
 10
-45.442344340791479
 20
 33.508845633897892
 11
-35.842344340791485
 21
 33.508845633897892
 40
 6
 41
 0.8
  1
13
 50
 0
 72
  5
  0
ENDBLK
  8
0
  0
BLOCK
  8
0
  2
CADWIN-G9
 70
    0
 10
0.0
 20
0.0
  0
LINE
  8
192
  6
CONTINUOUS
 62
     7
 10
-16.051834674710705
 20
 93.26193976941444
 11
-21.163394588106328
 21
 42.141148544313566
  0
LINE
  8
192
  6
CONTINUOUS
 62
     7
 10
-16.051834674710705
 20
 93.26193976941444
 11
-17.572832721140738
 21
 88.498898205166228
  0
LINE
  8
192
  6
CONTINUOUS
 62
     7
 10
-16.051834674710705
 20
 93.26193976941444
 11
-15.504031994437305
 21
 88.292039144302777
  0
CIRCLE
  8
192
  6
CONTINUOUS
 62
     7
 10
-21.726567674575421
 20
 36.508845633897892
 40
 5.6603886792339626
  0
TEXT
  8
192
  6
CONTINUOUS
 62
     56
 10
-26.526567674575421
 20
 33.508845633897892
 11
-16.92656767457542
 21
 33.508845633897892
 40
 6
 41
 0.8
  1
14
 50
 0
 72
  5
  0
ENDBLK
  8
0
  0
BLOCK
  8
0
  2
CADWIN-G10
 70
    0
 10
0.0
 20
0.0
  0
LINE
  8
192
  6
CONTINUOUS
 62
     7
 10
 66.420951589991205
 20
 130.1227211672784
 11
 56.820411791190558
 21
 42.135836752569567
  0
LINE
  8
192
  6
CONTINUOUS
 62
     7
 10
 66.420951589991205
 20
 130.1227211672784
 11
 64.857030796204157
 21
 125.37360001165808
  0
LINE
  8
192
  6
CONTINUOUS
 62
     7
 10
 66.420951589991205
 20
 130.1227211672784
 11
 66.923880449111508
 21
 125.14807921406569
  0
CIRCLE
  8
192
  6
CONTINUOUS
 62
     7
 10
 56.206432190234551
 20
 36.508845633897892
 40
 5.6603886792339626
  0
TEXT
  8
192
  6
CONTINUOUS
 62
     56
 10
 51.406432190234554
 20
 33.508845633897892
 11
 61.006432190234548
 21
 33.508845633897892
 40
 6
 41
 0.8
  1
15
 50
 0
 72
  5
  0
ENDBLK
  8
0
  0
BLOCK
  8
0
  2
CADWIN-G11
 70
    0
 10
0.0
 20
0.0
  0
LINE
  8
192
  6
CONTINUOUS
 62
     7
 10
 77.013786523072184
 20
 120.12272116727839
 11
 74.544763099056439
 21
 42.166397456457474
  0
LINE
  8
192
  6
CONTINUOUS
 62
     7
 10
 77.013786523072184
 20
 120.12272116727839
 11
 75.819927830461523
 21
 115.26734255978774
  0
LINE
  8
192
  6
CONTINUOUS
 62
     7
 10
 77.013786523072184
 20
 120.12272116727839
 11
 77.898002733043384
 21
 115.20152601833092
  0
CIRCLE
  8
192
  6
CONTINUOUS
 62
     7
 10
 74.365577789801733
 20
 36.508845633897892
 40
 5.6603886792339626
  0
TEXT
  8
192
  6
CONTINUOUS
 62
     56
 10
 69.565577789801736
 20
 33.508845633897892
 11
 79.165577789801731
 21
 33.508845633897892
 40
 6
 41
 0.8
  1
16
 50
 0
 72
  5
  0
ENDBLK
  8
0
  0
BLOCK
  8
0
  2
CADWIN-G12
 70
    0
 10
0.0
 20
0.0
  0
LINE
  8
192
  6
CONTINUOUS
 62
     7
 10
-3.1449154900542595
 20
 194.94835420140882
 11
 2.3432849229288291
 21
 218.64237869311592
  0
LINE
  8
192
  6
CONTINUOUS
 62
     7
 10
-3.1449154900542595
 20
 194.94835420140882
 11
-1.028556239133251
 21
 199.4783678350573
  0
LINE
  8
192
  6
CONTINUOUS
 62
     7
 10
-3.1449154900542595
 20
 194.94835420140882
 11
-3.0540476480732641
 21
 199.94752843674945
  0
CIRCLE
  8
192
  6
CONTINUOUS
 62
     7
 10
 3.6205730581538376
 20
 224.15677213388648
 40
 5.6603886792339626
  0
TEXT
  8
192
  6
CONTINUOUS
 62
     56
 10
-1.1794269418461631
 20
 221.15677213388648
 11
 8.4205730581538383
 21
 221.15677213388648
 40
 6
 41
 0.8
  1
17
 50
 0
 72
  5
  0
ENDBLK
  8
0
  0
BLOCK
  8
0
  2
CADWIN-G13
 70
    0
 10
0.0
 20
0.0
  0
LINE
  8
192
  6
CONTINUOUS
 62
     7
 10
-85.343413860326507
 20
 67.622721167278371
 11
-128.53087895168304
 21
 39.590618819436763
  0
LINE
  8
192
  6
CONTINUOUS
 62
     7
 10
-85.343413860326507
 20
 67.622721167278371
 11
-90.011729314340073
 21
 65.831958530350164
  0
LINE
  8
192
  6
CONTINUOUS
 62
     7
 10
-85.343413860326507
 20
 67.622721167278371
 11
-88.879763454693617
 21
 64.088003138012155
  0
CIRCLE
  8
192
  6
CONTINUOUS
 62
     7
 10
-133.27879154911926
 20
 36.508845633897892
 40
 5.6603886792339626
  0
TEXT
  8
192
  6
CONTINUOUS
 62
     56
 10
-135.67879154911927
 20
 33.508845633897892
 11
-130.87879154911926
 21
 33.508845633897892
 40
 6
 41
 0.8
  1
1
 50
 0
 72
  5
  0
ENDBLK
  8
0
  0
BLOCK
  8
0
  2
CADWIN-G14
 70
    0
 10
0.0
 20
0.0
  0
LINE
  8
204
  6
CONTINUOUS
 62
     7
 10
-83.843407860326778
 20
 94.062418129245415
 11
-109.27582713712768
 21
 88.941525843810567
  0
LINE
  8
204
  6
CONTINUOUS
 62
     7
 10
-83.843407860326778
 20
 94.062418129245415
 11
-88.8431193120459
 21
 94.116134044471991
  0
LINE
  8
204
  6
CONTINUOUS
 62
     7
 10
-83.843407860326778
 20
 94.062418129245415
 11
-88.432719777607474
 21
 92.077924207383901
  0
LINE
  8
204
  6
CONTINUOUS
 62
     7
 10
-109.27582713712768
 20
 88.941525843810567
 11
-127.61879974001165
 21
 89.158750256432583
  0
CIRCLE
  8
204
  6
CONTINUOUS
 62
     7
 10
-133.27879154911912
 20
 89.225778018115307
 40
 5.6603886792339626
  0
TEXT
  8
204
  6
CONTINUOUS
 62
     56
 10
-135.67879154911913
 20
 86.225778018115307
 11
-130.87879154911911
 21
 86.225778018115307
 40
 6
 41
 0.8
  1
2
 50
 0
 72
  5
  0
ENDBLK
  8
0
  0
BLOCK
  8
0
  2
CADWIN-G15
 70
    0
 10
0.0
 20
0.0
  0
LINE
  8
204
  6
CONTINUOUS
 62
     7
 10
-83.843407860326778
 20
 103.20180073002568
 11
-127.81525645220104
 21
 115.11152343818027
  0
LINE
  8
204
  6
CONTINUOUS
 62
     7
 10
-83.843407860326778
 20
 103.20180073002568
 11
-88.29228759591804
 21
 105.48378870068753
  0
LINE
  8
204
  6
CONTINUOUS
 62
     7
 10
-83.843407860326778
 20
 103.20180073002568
 11
-88.835829861100748
 21
 103.47697806591653
  0
CIRCLE
  8
204
  6
CONTINUOUS
 62
     7
 10
-133.27879154911912
 20
 116.59131539813414
 40
 5.6603886792339626
  0
TEXT
  8
204
  6
CONTINUOUS
 62
     56
 10
-135.67879154911913
 20
 113.59131539813416
 11
-130.87879154911911
 21
 113.59131539813416
 40
 6
 41
 0.8
  1
3
 50
 0
 72
  5
  0
ENDBLK
  8
0
  0
BLOCK
  8
0
  2
CADWIN-G16
 70
    0
 10
0.0
 20
0.0
  0
LINE
  8
204
  6
CONTINUOUS
 62
     7
 10
-83.843407860326778
 20
 97.15878318653094
 11
-99.445234554549231
 21
 97.878258753548721
  0
LINE
  8
204
  6
CONTINUOUS
 62
     7
 10
-83.843407860326778
 20
 97.15878318653094
 11
-88.681065708627031
 21
 98.422534167847687
  0
LINE
  8
204
  6
CONTINUOUS
 62
     7
 10
-83.843407860326778
 20
 97.15878318653094
 11
-88.776842045095066
 21
 96.345624441537282
  0
LINE
  8
204
  6
CONTINUOUS
 62
     7
 10
-99.445234554549231
 20
 97.878258753548721
 11
-127.70448287171077
 21
 102.86367488003387
  0
CIRCLE
  8
204
  6
CONTINUOUS
 62
     7
 10
-133.27879154911912
 20
 103.84707854535645
 40
 5.6603886792339626
  0
TEXT
  8
204
  6
CONTINUOUS
 62
     56
 10
-135.67879154911913
 20
 100.84707854535645
 11
-130.87879154911911
 21
 100.84707854535645
 40
 6
 41
 0.8
  1
4
 50
 0
 72
  5
  0
ENDBLK
  8
0
  0
BLOCK
  8
0
  2
CADWIN-G17
 70
    0
 10
0.0
 20
0.0
  0
LINE
  8
204
  6
CONTINUOUS
 62
     7
 10
-79.23301338380432
 20
 117.71769636339059
 11
-105.78648100581324
 21
 120.37304312559148
  0
POINT
  8
204
  6
CONTINUOUS
 62
     7
 10
-79.23301338380432
 20
 117.71769636339059
  0
LINE
  8
204
  6
CONTINUOUS
 62
     7
 10
-105.78648100581324
 20
 120.37304312559148
 11
-128.14975959906869
 21
 130.81284422334735
  0
CIRCLE
  8
204
  6
CONTINUOUS
 62
     7
 10
-133.27879154911912
 20
 133.20721914289561
 40
 5.6603886792339626
  0
TEXT
  8
204
  6
CONTINUOUS
 62
     56
 10
-135.67879154911913
 20
 130.20721914289561
 11
-130.87879154911911
 21
 130.20721914289561
 40
 6
 41
 0.8
  1
5
 50
 0
 72
  5
  0
ENDBLK
  8
0
  0
BLOCK
  8
0
  2
CADWIN-G18
 70
    0
 10
0.0
 20
0.0
  0
LINE
  8
204
  6
CONTINUOUS
 62
     7
 10
-99.843407860326835
 20
 148.88411518183051
 11
-127.82568864027527
 21
 156.67253627007045
  0
LINE
  8
204
  6
CONTINUOUS
 62
     7
 10
-99.843407860326835
 20
 148.88411518183051
 11
-104.27629643604166
 21
 151.19701355298668
  0
LINE
  8
204
  6
CONTINUOUS
 62
     7
 10
-99.843407860326835
 20
 148.88411518183051
 11
-104.83379360216645
 21
 149.1940347643739
  0
CIRCLE
  8
204
  6
CONTINUOUS
 62
     7
 10
-133.27879154911912
 20
 158.19032040016236
 40
 5.6603886792339626
  0
TEXT
  8
204
  6
CONTINUOUS
 62
     56
 10
-135.67879154911913
 20
 155.19032040016236
 11
-130.87879154911911
 21
 155.19032040016236
 40
 6
 41
 0.8
  1
6
 50
 0
 72
  5
  0
ENDBLK
  8
0
  0
BLOCK
  8
0
  2
CADWIN-G19
 70
    0
 10
0.0
 20
0.0
  0
LINE
  8
0
  6
CONTINUOUS
 62
     7
 10
-81.843407860326835
 20
 93.941097785685713
 11
-82.161784478734191
 21
 93.622721167278371
  0
LINE
  8
0
  6
CONTINUOUS
 62
     7
 10
-81.843407860326835
 20
 94.365361854397648
 11
-82.586048547446111
 21
 93.622721167278371
  0
LINE
  8
0
  6
CONTINUOUS
 62
     7
 10
-82.010312616158046
 20
 94.622721167278371
 11
-83.010312616158046
 21
 93.622721167278371
  0
LINE
  8
0
  6
CONTINUOUS
 62
     7
 10
-82.434576684869967
 20
 94.622721167278371
 11
-83.434576684869967
 21
 93.622721167278371
  0
LINE
  8
0
  6
CONTINUOUS
 62
     7
 10
-82.858840753581902
 20
 94.622721167278371
 11
-83.843407860326835
 21
 93.638154060533424
  0
LINE
  8
0
  6
CONTINUOUS
 62
     7
 10
-83.283104822293822
 20
 94.622721167278371
 11
-83.843407860326835
 21
 94.062418129245359
  0
LINE
  8
0
  6
CONTINUOUS
 62
     7
 10
-83.707368891005757
 20
 94.622721167278371
 11
-83.843407860326835
 21
 94.486682197957293
  0
LINE
  8
0
  6
CONTINUOUS
 62
     7
 10
-73.525031241919493
 20
 94.622721167278371
 11
-73.843407860326835
 21
 94.304344548871029
  0
LINE
  8
0
  6
CONTINUOUS
 62
     7
 10
-73.100767173207558
 20
 94.622721167278371
 11
-73.843407860326835
 21
 93.880080480159094
  0
LINE
  8
0
  6
CONTINUOUS
 62
     7
 10
-72.676503104495637
 20
 94.622721167278371
 11
-73.676503104495637
 21
 93.622721167278371
  0
LINE
  8
0
  6
CONTINUOUS
 62
     7
 10
-72.252239035783703
 20
 94.622721167278371
 11
-73.252239035783703
 21
 93.622721167278371
  0
LINE
  8
0
  6
CONTINUOUS
 62
     7
 10
-71.843407860326835
 20
 94.607288274023318
 11
-72.827974967071782
 21
 93.622721167278371
  0
LINE
  8
0
  6
CONTINUOUS
 62
     7
 10
-71.843407860326835
 20
 94.183024205311384
 11
-72.403710898359861
 21
 93.622721167278371
  0
LINE
  8
0
  6
CONTINUOUS
 62
     7
 10
-71.843407860326835
 20
 93.758760136599449
 11
-71.979446829647927
 21
 93.622721167278371
  0
ENDBLK
  8
0
  0
BLOCK
  8
0
  2
CADWIN-G20
 70
    0
 10
0.0
 20
0.0
  0
LINE
  8
0
  6
CONTINUOUS
 62
     7
 10
-81.843407860326778
 20
 98.941097785685713
 11
-82.161784478734134
 21
 98.622721167278371
  0
LINE
  8
0
  6
CONTINUOUS
 62
     7
 10
-81.843407860326778
 20
 99.365361854397648
 11
-82.586048547446055
 21
 98.622721167278371
  0
LINE
  8
0
  6
CONTINUOUS
 62
     7
 10
-82.010312616157989
 20
 99.622721167278371
 11
-83.010312616157989
 21
 98.622721167278371
  0
LINE
  8
0
  6
CONTINUOUS
 62
     7
 10
-82.43457668486991
 20
 99.622721167278371
 11
-83.43457668486991
 21
 98.622721167278371
  0
LINE
  8
0
  6
CONTINUOUS
 62
     7
 10
-82.858840753581845
 20
 99.622721167278371
 11
-83.843407860326778
 21
 98.638154060533424
  0
LINE
  8
0
  6
CONTINUOUS
 62
     7
 10
-83.283104822293765
 20
 99.622721167278371
 11
-83.843407860326778
 21
 99.062418129245359
  0
LINE
  8
0
  6
CONTINUOUS
 62
     7
 10
-83.7073688910057
 20
 99.622721167278371
 11
-83.843407860326778
 21
 99.486682197957293
  0
LINE
  8
0
  6
CONTINUOUS
 62
     7
 10
-73.525031241919436
 20
 99.622721167278371
 11
-73.843407860326778
 21
 99.304344548871029
  0
LINE
  8
0
  6
CONTINUOUS
 62
     7
 10
-73.100767173207501
 20
 99.622721167278371
 11
-73.843407860326778
 21
 98.880080480159094
  0
LINE
  8
0
  6
CONTINUOUS
 62
     7
 10
-72.67650310449558
 20
 99.622721167278371
 11
-73.67650310449558
 21
 98.622721167278371
  0
LINE
  8
0
  6
CONTINUOUS
 62
     7
 10
-72.252239035783646
 20
 99.622721167278371
 11
-73.252239035783646
 21
 98.622721167278371
  0
LINE
  8
0
  6
CONTINUOUS
 62
     7
 10
-71.843407860326778
 20
 99.607288274023318
 11
-72.827974967071725
 21
 98.622721167278371
  0
LINE
  8
0
  6
CONTINUOUS
 62
     7
 10
-71.843407860326778
 20
 99.183024205311384
 11
-72.403710898359805
 21
 98.622721167278371
  0
LINE
  8
0
  6
CONTINUOUS
 62
     7
 10
-71.843407860326778
 20
 98.758760136599449
 11
-71.97944682964787
 21
 98.622721167278371
  0
ENDBLK
  8
0
  0
BLOCK
  8
0
  2
CADWIN-G21
 70
    0
 10
0.0
 20
0.0
  0
LINE
  8
0
  6
CONTINUOUS
 62
     7
 10
-81.843407860326778
 20
 108.94109778568571
 11
-82.161784478734134
 21
 108.62272116727837
  0
LINE
  8
0
  6
CONTINUOUS
 62
     7
 10
-81.843407860326778
 20
 109.36536185439765
 11
-82.586048547446055
 21
 108.62272116727837
  0
LINE
  8
0
  6
CONTINUOUS
 62
     7
 10
-82.010312616157989
 20
 109.62272116727837
 11
-83.010312616157989
 21
 108.62272116727837
  0
LINE
  8
0
  6
CONTINUOUS
 62
     7
 10
-82.43457668486991
 20
 109.62272116727837
 11
-83.43457668486991
 21
 108.62272116727837
  0
LINE
  8
0
  6
CONTINUOUS
 62
     7
 10
-82.858840753581845
 20
 109.62272116727837
 11
-83.843407860326778
 21
 108.63815406053342
  0
LINE
  8
0
  6
CONTINUOUS
 62
     7
 10
-83.283104822293765
 20
 109.62272116727837
 11
-83.843407860326778
 21
 109.06241812924536
  0
LINE
  8
0
  6
CONTINUOUS
 62
     7
 10
-83.7073688910057
 20
 109.62272116727837
 11
-83.843407860326778
 21
 109.48668219795729
  0
LINE
  8
0
  6
CONTINUOUS
 62
     7
 10
-73.525031241919436
 20
 109.62272116727837
 11
-73.843407860326778
 21
 109.30434454887103
  0
LINE
  8
0
  6
CONTINUOUS
 62
     7
 10
-73.100767173207501
 20
 109.62272116727837
 11
-73.843407860326778
 21
 108.88008048015909
  0
LINE
  8
0
  6
CONTINUOUS
 62
     7
 10
-72.67650310449558
 20
 109.62272116727837
 11
-73.67650310449558
 21
 108.62272116727837
  0
LINE
  8
0
  6
CONTINUOUS
 62
     7
 10
-72.252239035783646
 20
 109.62272116727837
 11
-73.252239035783646
 21
 108.62272116727837
  0
LINE
  8
0
  6
CONTINUOUS
 62
     7
 10
-71.843407860326778
 20
 109.60728827402332
 11
-72.827974967071725
 21
 108.62272116727837
  0
LINE
  8
0
  6
CONTINUOUS
 62
     7
 10
-71.843407860326778
 20
 109.18302420531138
 11
-72.403710898359805
 21
 108.62272116727837
  0
LINE
  8
0
  6
CONTINUOUS
 62
     7
 10
-71.843407860326778
 20
 108.75876013659945
 11
-71.97944682964787
 21
 108.62272116727837
  0
ENDBLK
  8
0
  0
BLOCK
  8
0
  2
CADWIN-G22
 70
    0
 10
0.0
 20
0.0
  0
LINE
  8
0
  6
CONTINUOUS
 62
     7
 10
-81.843407860326778
 20
 113.94109778568571
 11
-82.161784478734134
 21
 113.62272116727837
  0
LINE
  8
0
  6
CONTINUOUS
 62
     7
 10
-81.843407860326778
 20
 114.36536185439765
 11
-82.586048547446055
 21
 113.62272116727837
  0
LINE
  8
0
  6
CONTINUOUS
 62
     7
 10
-82.010312616157989
 20
 114.62272116727837
 11
-83.010312616157989
 21
 113.62272116727837
  0
LINE
  8
0
  6
CONTINUOUS
 62
     7
 10
-82.43457668486991
 20
 114.62272116727837
 11
-83.43457668486991
 21
 113.62272116727837
  0
LINE
  8
0
  6
CONTINUOUS
 62
     7
 10
-82.858840753581845
 20
 114.62272116727837
 11
-83.843407860326778
 21
 113.63815406053342
  0
LINE
  8
0
  6
CONTINUOUS
 62
     7
 10
-83.283104822293765
 20
 114.62272116727837
 11
-83.843407860326778
 21
 114.06241812924536
  0
LINE
  8
0
  6
CONTINUOUS
 62
     7
 10
-83.7073688910057
 20
 114.62272116727837
 11
-83.843407860326778
 21
 114.48668219795729
  0
LINE
  8
0
  6
CONTINUOUS
 62
     7
 10
-73.525031241919436
 20
 114.62272116727837
 11
-73.843407860326778
 21
 114.30434454887103
  0
LINE
  8
0
  6
CONTINUOUS
 62
     7
 10
-73.100767173207501
 20
 114.62272116727837
 11
-73.843407860326778
 21
 113.88008048015909
  0
LINE
  8
0
  6
CONTINUOUS
 62
     7
 10
-72.67650310449558
 20
 114.62272116727837
 11
-73.67650310449558
 21
 113.62272116727837
  0
LINE
  8
0
  6
CONTINUOUS
 62
     7
 10
-72.252239035783646
 20
 114.62272116727837
 11
-73.252239035783646
 21
 113.62272116727837
  0
LINE
  8
0
  6
CONTINUOUS
 62
     7
 10
-71.843407860326778
 20
 114.60728827402332
 11
-72.827974967071725
 21
 113.62272116727837
  0
LINE
  8
0
  6
CONTINUOUS
 62
     7
 10
-71.843407860326778
 20
 114.18302420531138
 11
-72.403710898359805
 21
 113.62272116727837
  0
LINE
  8
0
  6
CONTINUOUS
 62
     7
 10
-71.843407860326778
 20
 113.75876013659945
 11
-71.97944682964787
 21
 113.62272116727837
  0
ENDBLK
  8
0
  0
BLOCK
  8
0
  2
CADWIN-G23
 70
    0
 10
0.0
 20
0.0
  0
LINE
  8
0
  6
CONTINUOUS
 62
     7
 10
-81.843407860326778
 20
 123.94109778568571
 11
-82.161784478734134
 21
 123.62272116727836
  0
LINE
  8
0
  6
CONTINUOUS
 62
     7
 10
-81.843407860326778
 20
 124.36536185439765
 11
-82.586048547446055
 21
 123.62272116727836
  0
LINE
  8
0
  6
CONTINUOUS
 62
     7
 10
-82.010312616157989
 20
 124.62272116727836
 11
-83.010312616157989
 21
 123.62272116727836
  0
LINE
  8
0
  6
CONTINUOUS
 62
     7
 10
-82.43457668486991
 20
 124.62272116727836
 11
-83.43457668486991
 21
 123.62272116727836
  0
LINE
  8
0
  6
CONTINUOUS
 62
     7
 10
-82.858840753581845
 20
 124.62272116727836
 11
-83.843407860326778
 21
 123.63815406053342
  0
LINE
  8
0
  6
CONTINUOUS
 62
     7
 10
-83.283104822293765
 20
 124.62272116727836
 11
-83.843407860326778
 21
 124.06241812924536
  0
LINE
  8
0
  6
CONTINUOUS
 62
     7
 10
-83.7073688910057
 20
 124.62272116727836
 11
-83.843407860326778
 21
 124.48668219795729
  0
LINE
  8
0
  6
CONTINUOUS
 62
     7
 10
-73.525031241919436
 20
 124.62272116727836
 11
-73.843407860326778
 21
 124.30434454887104
  0
LINE
  8
0
  6
CONTINUOUS
 62
     7
 10
-73.100767173207501
 20
 124.62272116727836
 11
-73.843407860326778
 21
 123.88008048015911
  0
LINE
  8
0
  6
CONTINUOUS
 62
     7
 10
-72.67650310449558
 20
 124.62272116727836
 11
-73.67650310449558
 21
 123.62272116727836
  0
LINE
  8
0
  6
CONTINUOUS
 62
     7
 10
-72.252239035783646
 20
 124.62272116727836
 11
-73.252239035783646
 21
 123.62272116727836
  0
LINE
  8
0
  6
CONTINUOUS
 62
     7
 10
-71.843407860326778
 20
 124.60728827402332
 11
-72.827974967071725
 21
 123.62272116727836
  0
LINE
  8
0
  6
CONTINUOUS
 62
     7
 10
-71.843407860326778
 20
 124.18302420531138
 11
-72.403710898359805
 21
 123.62272116727836
  0
LINE
  8
0
  6
CONTINUOUS
 62
     7
 10
-71.843407860326778
 20
 123.75876013659945
 11
-71.97944682964787
 21
 123.62272116727836
  0
ENDBLK
  8
0
  0
BLOCK
  8
0
  2
CADWIN-G24
 70
    0
 10
0.0
 20
0.0
  0
LINE
  8
0
  6
CONTINUOUS
 62
     7
 10
-81.843407860326835
 20
 155.94109778568577
 11
-82.161784478734191
 21
 155.62272116727843
  0
LINE
  8
0
  6
CONTINUOUS
 62
     7
 10
-81.843407860326835
 20
 156.36536185439769
 11
-82.586048547446111
 21
 155.62272116727843
  0
LINE
  8
0
  6
CONTINUOUS
 62
     7
 10
-82.010312616158046
 20
 156.62272116727843
 11
-83.010312616158046
 21
 155.62272116727843
  0
LINE
  8
0
  6
CONTINUOUS
 62
     7
 10
-82.434576684869967
 20
 156.62272116727843
 11
-83.434576684869967
 21
 155.62272116727843
  0
LINE
  8
0
  6
CONTINUOUS
 62
     7
 10
-82.858840753581902
 20
 156.62272116727843
 11
-83.843407860326835
 21
 155.63815406053348
  0
LINE
  8
0
  6
CONTINUOUS
 62
     7
 10
-83.283104822293822
 20
 156.62272116727843
 11
-83.843407860326835
 21
 156.06241812924543
  0
LINE
  8
0
  6
CONTINUOUS
 62
     7
 10
-83.707368891005757
 20
 156.62272116727843
 11
-83.843407860326835
 21
 156.48668219795735
  0
LINE
  8
0
  6
CONTINUOUS
 62
     7
 10
-73.525031241919493
 20
 156.62272116727843
 11
-73.843407860326835
 21
 156.30434454887109
  0
LINE
  8
0
  6
CONTINUOUS
 62
     7
 10
-73.100767173207558
 20
 156.62272116727843
 11
-73.843407860326835
 21
 155.88008048015917
  0
LINE
  8
0
  6
CONTINUOUS
 62
     7
 10
-72.676503104495637
 20
 156.62272116727843
 11
-73.676503104495637
 21
 155.62272116727843
  0
LINE
  8
0
  6
CONTINUOUS
 62
     7
 10
-72.252239035783703
 20
 156.62272116727843
 11
-73.252239035783703
 21
 155.62272116727843
  0
LINE
  8
0
  6
CONTINUOUS
 62
     7
 10
-71.843407860326835
 20
 156.60728827402338
 11
-72.827974967071782
 21
 155.62272116727843
  0
LINE
  8
0
  6
CONTINUOUS
 62
     7
 10
-71.843407860326835
 20
 156.18302420531143
 11
-72.403710898359861
 21
 155.62272116727843
  0
LINE
  8
0
  6
CONTINUOUS
 62
     7
 10
-71.843407860326835
 20
 155.75876013659951
 11
-71.979446829647927
 21
 155.62272116727843
  0
ENDBLK
  8
0
  0
BLOCK
  8
0
  2
CADWIN-G25
 70
    0
 10
0.0
 20
0.0
  0
LINE
  8
0
  6
CONTINUOUS
 62
     7
 10
-81.843407860326778
 20
 160.94109778568577
 11
-82.161784478734134
 21
 160.62272116727843
  0
LINE
  8
0
  6
CONTINUOUS
 62
     7
 10
-81.843407860326778
 20
 161.36536185439769
 11
-82.586048547446055
 21
 160.62272116727843
  0
LINE
  8
0
  6
CONTINUOUS
 62
     7
 10
-82.010312616157989
 20
 161.62272116727843
 11
-83.010312616157989
 21
 160.62272116727843
  0
LINE
  8
0
  6
CONTINUOUS
 62
     7
 10
-82.43457668486991
 20
 161.62272116727843
 11
-83.43457668486991
 21
 160.62272116727843
  0
LINE
  8
0
  6
CONTINUOUS
 62
     7
 10
-82.858840753581845
 20
 161.62272116727843
 11
-83.843407860326778
 21
 160.63815406053348
  0
LINE
  8
0
  6
CONTINUOUS
 62
     7
 10
-83.283104822293765
 20
 161.62272116727843
 11
-83.843407860326778
 21
 161.06241812924543
  0
LINE
  8
0
  6
CONTINUOUS
 62
     7
 10
-83.7073688910057
 20
 161.62272116727843
 11
-83.843407860326778
 21
 161.48668219795735
  0
LINE
  8
0
  6
CONTINUOUS
 62
     7
 10
-73.525031241919436
 20
 161.62272116727843
 11
-73.843407860326778
 21
 161.30434454887109
  0
LINE
  8
0
  6
CONTINUOUS
 62
     7
 10
-73.100767173207501
 20
 161.62272116727843
 11
-73.843407860326778
 21
 160.88008048015917
  0
LINE
  8
0
  6
CONTINUOUS
 62
     7
 10
-72.67650310449558
 20
 161.62272116727843
 11
-73.67650310449558
 21
 160.62272116727843
  0
LINE
  8
0
  6
CONTINUOUS
 62
     7
 10
-72.252239035783646
 20
 161.62272116727843
 11
-73.252239035783646
 21
 160.62272116727843
  0
LINE
  8
0
  6
CONTINUOUS
 62
     7
 10
-71.843407860326778
 20
 161.60728827402338
 11
-72.827974967071725
 21
 160.62272116727843
  0
LINE
  8
0
  6
CONTINUOUS
 62
     7
 10
-71.843407860326778
 20
 161.18302420531143
 11
-72.403710898359805
 21
 160.62272116727843
  0
LINE
  8
0
  6
CONTINUOUS
 62
     7
 10
-71.843407860326778
 20
 160.75876013659951
 11
-71.97944682964787
 21
 160.62272116727843
  0
ENDBLK
  8
0
  0
BLOCK
  8
0
  2
CADWIN-G26
 70
    0
 10
0.0
 20
0.0
  0
LINE
  8
0
  6
CONTINUOUS
 62
     7
 10
-81.843407860326778
 20
 170.94109778568577
 11
-82.161784478734134
 21
 170.62272116727843
  0
LINE
  8
0
  6
CONTINUOUS
 62
     7
 10
-81.843407860326778
 20
 171.36536185439769
 11
-82.586048547446055
 21
 170.62272116727843
  0
LINE
  8
0
  6
CONTINUOUS
 62
     7
 10
-82.010312616157989
 20
 171.62272116727843
 11
-83.010312616157989
 21
 170.62272116727843
  0
LINE
  8
0
  6
CONTINUOUS
 62
     7
 10
-82.43457668486991
 20
 171.62272116727843
 11
-83.43457668486991
 21
 170.62272116727843
  0
LINE
  8
0
  6
CONTINUOUS
 62
     7
 10
-82.858840753581845
 20
 171.62272116727843
 11
-83.843407860326778
 21
 170.63815406053348
  0
LINE
  8
0
  6
CONTINUOUS
 62
     7
 10
-83.283104822293765
 20
 171.62272116727843
 11
-83.843407860326778
 21
 171.06241812924543
  0
LINE
  8
0
  6
CONTINUOUS
 62
     7
 10
-83.7073688910057
 20
 171.62272116727843
 11
-83.843407860326778
 21
 171.48668219795735
  0
LINE
  8
0
  6
CONTINUOUS
 62
     7
 10
-73.525031241919436
 20
 171.62272116727843
 11
-73.843407860326778
 21
 171.30434454887109
  0
LINE
  8
0
  6
CONTINUOUS
 62
     7
 10
-73.100767173207501
 20
 171.62272116727843
 11
-73.843407860326778
 21
 170.88008048015917
  0
LINE
  8
0
  6
CONTINUOUS
 62
     7
 10
-72.67650310449558
 20
 171.62272116727843
 11
-73.67650310449558
 21
 170.62272116727843
  0
LINE
  8
0
  6
CONTINUOUS
 62
     7
 10
-72.252239035783646
 20
 171.62272116727843
 11
-73.252239035783646
 21
 170.62272116727843
  0
LINE
  8
0
  6
CONTINUOUS
 62
     7
 10
-71.843407860326778
 20
 171.60728827402338
 11
-72.827974967071725
 21
 170.62272116727843
  0
LINE
  8
0
  6
CONTINUOUS
 62
     7
 10
-71.843407860326778
 20
 171.18302420531143
 11
-72.403710898359805
 21
 170.62272116727843
  0
LINE
  8
0
  6
CONTINUOUS
 62
     7
 10
-71.843407860326778
 20
 170.75876013659951
 11
-71.97944682964787
 21
 170.62272116727843
  0
ENDBLK
  8
0
  0
BLOCK
  8
0
  2
CADWIN-G27
 70
    0
 10
0.0
 20
0.0
  0
LINE
  8
0
  6
CONTINUOUS
 62
     7
 10
-81.843407860326778
 20
 175.94109778568577
 11
-82.161784478734134
 21
 175.62272116727843
  0
LINE
  8
0
  6
CONTINUOUS
 62
     7
 10
-81.843407860326778
 20
 176.36536185439769
 11
-82.586048547446055
 21
 175.62272116727843
  0
LINE
  8
0
  6
CONTINUOUS
 62
     7
 10
-82.010312616157989
 20
 176.62272116727843
 11
-83.010312616157989
 21
 175.62272116727843
  0
LINE
  8
0
  6
CONTINUOUS
 62
     7
 10
-82.43457668486991
 20
 176.62272116727843
 11
-83.43457668486991
 21
 175.62272116727843
  0
LINE
  8
0
  6
CONTINUOUS
 62
     7
 10
-82.858840753581845
 20
 176.62272116727843
 11
-83.843407860326778
 21
 175.63815406053348
  0
LINE
  8
0
  6
CONTINUOUS
 62
     7
 10
-83.283104822293765
 20
 176.62272116727843
 11
-83.843407860326778
 21
 176.06241812924543
  0
LINE
  8
0
  6
CONTINUOUS
 62
     7
 10
-83.7073688910057
 20
 176.62272116727843
 11
-83.843407860326778
 21
 176.48668219795735
  0
LINE
  8
0
  6
CONTINUOUS
 62
     7
 10
-73.525031241919436
 20
 176.62272116727843
 11
-73.843407860326778
 21
 176.30434454887109
  0
LINE
  8
0
  6
CONTINUOUS
 62
     7
 10
-73.100767173207501
 20
 176.62272116727843
 11
-73.843407860326778
 21
 175.88008048015917
  0
LINE
  8
0
  6
CONTINUOUS
 62
     7
 10
-72.67650310449558
 20
 176.62272116727843
 11
-73.67650310449558
 21
 175.62272116727843
  0
LINE
  8
0
  6
CONTINUOUS
 62
     7
 10
-72.252239035783646
 20
 176.62272116727843
 11
-73.252239035783646
 21
 175.62272116727843
  0
LINE
  8
0
  6
CONTINUOUS
 62
     7
 10
-71.843407860326778
 20
 176.60728827402338
 11
-72.827974967071725
 21
 175.62272116727843
  0
LINE
  8
0
  6
CONTINUOUS
 62
     7
 10
-71.843407860326778
 20
 176.18302420531143
 11
-72.403710898359805
 21
 175.62272116727843
  0
LINE
  8
0
  6
CONTINUOUS
 62
     7
 10
-71.843407860326778
 20
 175.75876013659951
 11
-71.97944682964787
 21
 175.62272116727843
  0
ENDBLK
  8
0
  0
BLOCK
  8
0
  2
CADWIN-G28
 70
    0
 10
0.0
 20
0.0
  0
LINE
  8
0
  6
CONTINUOUS
 62
     7
 10
-81.843407860326778
 20
 185.94109778568577
 11
-82.161784478734134
 21
 185.62272116727843
  0
LINE
  8
0
  6
CONTINUOUS
 62
     7
 10
-81.843407860326778
 20
 186.36536185439769
 11
-82.586048547446055
 21
 185.62272116727843
  0
LINE
  8
0
  6
CONTINUOUS
 62
     7
 10
-82.010312616157989
 20
 186.62272116727843
 11
-83.010312616157989
 21
 185.62272116727843
  0
LINE
  8
0
  6
CONTINUOUS
 62
     7
 10
-82.43457668486991
 20
 186.62272116727843
 11
-83.43457668486991
 21
 185.62272116727843
  0
LINE
  8
0
  6
CONTINUOUS
 62
     7
 10
-82.858840753581845
 20
 186.62272116727843
 11
-83.843407860326778
 21
 185.63815406053348
  0
LINE
  8
0
  6
CONTINUOUS
 62
     7
 10
-83.283104822293765
 20
 186.62272116727843
 11
-83.843407860326778
 21
 186.06241812924543
  0
LINE
  8
0
  6
CONTINUOUS
 62
     7
 10
-83.7073688910057
 20
 186.62272116727843
 11
-83.843407860326778
 21
 186.48668219795735
  0
LINE
  8
0
  6
CONTINUOUS
 62
     7
 10
-73.525031241919436
 20
 186.62272116727843
 11
-73.843407860326778
 21
 186.30434454887109
  0
LINE
  8
0
  6
CONTINUOUS
 62
     7
 10
-73.100767173207501
 20
 186.62272116727843
 11
-73.843407860326778
 21
 185.88008048015917
  0
LINE
  8
0
  6
CONTINUOUS
 62
     7
 10
-72.67650310449558
 20
 186.62272116727843
 11
-73.67650310449558
 21
 185.62272116727843
  0
LINE
  8
0
  6
CONTINUOUS
 62
     7
 10
-72.252239035783646
 20
 186.62272116727843
 11
-73.252239035783646
 21
 185.62272116727843
  0
LINE
  8
0
  6
CONTINUOUS
 62
     7
 10
-71.843407860326778
 20
 186.60728827402338
 11
-72.827974967071725
 21
 185.62272116727843
  0
LINE
  8
0
  6
CONTINUOUS
 62
     7
 10
-71.843407860326778
 20
 186.18302420531143
 11
-72.403710898359805
 21
 185.62272116727843
  0
LINE
  8
0
  6
CONTINUOUS
 62
     7
 10
-71.843407860326778
 20
 185.75876013659951
 11
-71.97944682964787
 21
 185.62272116727843
  0
ENDBLK
  8
0
  0
ENDSEC
  0
SECTION
  2
ENTITIES
  0
LINE
  8
0
  6
CONTINUOUS
 62
     5
 10
-179.99999999999994
 20
-277
 11
-179.99999999999994
 21
 277
  0
LINE
  8
0
  6
CONTINUOUS
 62
     5
 10
 189.99999999999994
 20
 277
 11
 189.99999999999994
 21
-277
  0
LINE
  8
0
  6
CONTINUOUS
 62
     5
 10
 189.99999999999994
 20
-277
 11
-179.99999999999994
 21
-277
  0
LINE
  8
0
  6
CONTINUOUS
 62
     5
 10
-179.99999999999994
 20
 277
 11
 189.99999999999994
 21
 277
  0
LINE
  8
0
  6
CONTINUOUS
 62
     5
 10
 189.99999999999994
 20
-199
 11
-179.99999999999994
 21
-199
  0
LINE
  8
0
  6
CONTINUOUS
 62
     5
 10
 189.99999999999994
 20
-215
 11
-179.99999999999994
 21
-215
  0
LINE
  8
0
  6
CONTINUOUS
 62
     5
 10
 189.99999999999994
 20
-241
 11
-179.99999999999994
 21
-241
  0
LINE
  8
0
  6
CONTINUOUS
 62
     5
 10
 30
 20
-255
 11
-179.99999999999994
 21
-255
  0
LINE
  8
0
  6
CONTINUOUS
 62
     5
 10
 30
 20
-277
 11
 30
 21
-199
  0
LINE
  8
0
  6
CONTINUOUS
 62
     5
 10
-127.5
 20
-241
 11
-127.5
 21
-277
  0
LINE
  8
0
  6
CONTINUOUS
 62
     5
 10
-74.999999999999986
 20
-241
 11
-74.999999999999986
 21
-277
  0
LINE
  8
0
  6
CONTINUOUS
 62
     5
 10
-22.499999999999993
 20
-241
 11
-22.499999999999993
 21
-277
  0
LINE
  8
0
  6
CONTINUOUS
 62
     5
 10
-179.99999999999994
 20
-227
 11
 30
 21
-227
  0
LINE
  8
0
  6
CONTINUOUS
 62
     5
 10
 158
 20
-199
 11
 158
 21
-241
  0
LINE
  8
0
  6
CONTINUOUS
 62
     5
 10
 151.33333333333331
 20
-232.99999999999994
 11
 36.666666666666657
 21
-232.99999999999994
  0
TEXT
  8
0
  6
CONTINUOUS
 62
     5
 10
-168.55000003576276
 20
-254
 11
-138.95000003576277
 21
-254
 40
 6
 41
 0.8
  1
承認
 50
 0
 72
  5
  0
TEXT
  8
0
  6
CONTINUOUS
 62
     5
 10
-116.05000003576276
 20
-254
 11
-86.45000003576277
 21
-254
 40
 6
 41
 0.8
  1
検図
 50
 0
 72
  5
  0
TEXT
  8
0
  6
CONTINUOUS
 62
     5
 10
-63.550000035762793
 20
-254
 11
-33.950000035762784
 21
-254
 40
 6
 41
 0.8
  1
設計
 50
 0
 72
  5
  0
TEXT
  8
0
  6
CONTINUOUS
 62
     5
 10
-11.050000035762785
 20
-254
 11
 18.549999964237216
 21
-254
 40
 6
 41
 0.8
  1
製図
 50
 0
 72
  5
  0
TEXT
  8
0
  6
CONTINUOUS
 62
     3
 10
-11.850000041723252
 20
-269.5
 11
 19.349999958276751
 21
-269.5
 40
 7
 41
 0.8
  1
大塚
 50
 0
 72
  5
  0
TEXT
  8
0
  6
CONTINUOUS
 62
     3
 10
-143.99999620914454
 20
-236.99999999999994
 11
-35.599996209144535
 21
-236.99999999999994
 40
 6
 41
 0.8
  1
接液部構造断面図
 50
 0
 72
  5
  0
TEXT
  8
0
  6
CONTINUOUS
 62
     3
 10
 164.80000001788139
 20
-230.99999999999994
 11
 183.20000001788139
 21
-230.99999999999994
 40
 6
 41
 0.8
  1
non
 50
 0
 72
  5
  0
TEXT
  8
0
  6
CONTINUOUS
 62
     5
 10
 112.39999989271161
 20
-274
 11
 167.9999998927116
 21
-274
 40
 16
 41
 0.8
  1
神洋
 50
 0
 72
  5
  0
TEXT
  8
0
  6
CONTINUOUS
 62
     5
 10
 48.40000001192093
 20
-212.99999999999994
 11
 139.60000001192091
 21
-212.99999999999994
 40
 6
 41
 0.8
  1
図面番号
 50
 0
 72
  5
  0
TEXT
  8
0
  6
CONTINUOUS
 62
     5
 10
 164.20000002384185
 20
-212.99999999999994
 11
 183.80000002384185
 21
-212.99999999999994
 40
 6
 41
 0.8
  1
尺度
 50
 0
 72
  5
  0
TEXT
  8
0
  6
CONTINUOUS
 62
     5
 10
-144.59999998807902
 20
-212.99999999999994
 11
-5.3999999880790313
 21
-212.99999999999994
 40
 6
 41
 0.8
  1
図面名称
 50
 0
 72
  5
  0
TEXT
  8
0
  6
CONTINUOUS
 62
     3
 10
 48.399999982118594
 20
-226.99999999999994
 11
 139.59999998211859
 21
-226.99999999999994
 40
 6
 41
 0.8
  1
CAP-0-138
 50
 0
 72
  5
  0
TEXT
  8
0
  6
CONTINUOUS
 62
     3
 10
-174.99999996423713
 20
-225
 11
-80.599999964237128
 21
-225
 40
 6
 41
 0.8
  1
５ＤＰ型　ポンプ
 50
 0
 72
  5
  0
TEXT
  8
0
  6
CONTINUOUS
 62
     5
 10
-118.45000014305111
 20
-245.99999999999994
 11
-84.050000143051108
 21
-245.99999999999994
 40
 4
 41
 0.8
  1
CHECKED
 50
 0
 72
  5
  0
TEXT
  8
0
  6
CONTINUOUS
 62
     5
 10
-68.550000166893
 20
-245.99999999999994
 11
-28.950000166893005
 21
-245.99999999999994
 40
 4
 41
 0.8
  1
DESIGNED
 50
 0
 72
  5
  0
TEXT
  8
0
  6
CONTINUOUS
 62
     5
 10
-8.2500000953674313
 20
-245.99999999999994
 11
 15.749999904632567
 21
-245.99999999999994
 40
 4
 41
 0.8
  1
DRAWN
 50
 0
 72
  5
  0
TEXT
  8
0
  6
CONTINUOUS
 62
     5
 10
-87.000000095367426
 20
-204
 11
-63.00000009536744
 21
-204
 40
 4
 41
 0.8
  1
TITLE
 50
 0
 72
  5
  0
TEXT
  8
0
  6
CONTINUOUS
 62
     5
 10
-173.550000166893
 20
-245.99999999999994
 11
-133.95000016689301
 21
-245.99999999999994
 40
 4
 41
 0.8
  1
APPROVED
 50
 0
 72
  5
  0
TEXT
  8
0
  6
CONTINUOUS
 62
     5
 10
 161.99999990463257
 20
-204
 11
 185.99999990463257
 21
-204
 40
 4
 41
 0.8
  1
SCALE
 50
 0
 72
  5
  0
TEXT
  8
0
  6
CONTINUOUS
 62
     5
 10
 115.89037726086381
 20
-204
 11
 129.49037726086382
 21
-204
 40
 4
 41
 0.8
  1
NO.
 50
 0
 72
  5
  0
TEXT
  8
0
  6
CONTINUOUS
 62
     5
 10
 47.309860277258359
 20
-204
 11
 81.709860277258372
 21
-204
 40
 4
 41
 0.8
  1
DRAWING
 50
 0
 72
  5
  0
TEXT
  8
0
  6
CONTINUOUS
 62
     5
 10
 55.495797545013431
 20
-272.00000000922762
 11
 95.895797545013437
 21
-272.00000000922762
 40
 7
 41
 0.8
  1
株式会社
 50
 0
 72
  5
  0
TEXT
  8
0
  6
CONTINUOUS
 62
     5
 10
 45.527954795516493
 20
-251.99999999999994
 11
 152.7279547955165
 21
-251.99999999999994
 40
 8
 41
 0.8
  1
SINYO CO.,LTD
 50
 0
 72
  5
  0
LINE
  8
0
  6
CONTINUOUS
 62
     5
 10
-179.99999999999994
 20
 0.0000000000000028
 11
-189.99999999999994
 21
 0.0000000000000028
  0
LINE
  8
0
  6
CENTER
 62
     7
 10
-77.843407860326778
 20
 252.26331870682148
 11
-77.843407860326806
 21
 31.992668443201069
  0
LINE
  8
0
  6
CONTINUOUS
 62
     4
 10
 12.156612139673619
 20
 166.12272116727837
 11
-70.193407860326772
 21
 166.12272116727837
  0
LINE
  8
0
  6
CONTINUOUS
 62
     4
 10
-85.493407860326755
 20
 166.12272116727837
 11
-99.843407860326835
 21
 166.12272116727837
  0
LINE
  8
0
  6
CENTER
 62
     7
 10
 162.00961428905867
 20
 140.1227211672784
 11
-109.50017422444367
 21
 140.1227211672784
  0
LINE
  8
0
  6
CONTINUOUS
 62
     4
 10
-82.843407860326778
 20
 132.1227211672784
 11
-82.843407860326778
 21
 148.1227211672784
  0
LINE
  8
0
  6
CONTINUOUS
 62
     4
 10
-99.843407860326835
 20
 166.12272116727837
 11
-99.843407860326835
 21
 114.1227211672784
  0
LINE
  8
0
  6
CONTINUOUS
 62
     4
 10
-87.843407860326835
 20
 151.12272116727837
 11
-52.843407860326778
 21
 151.12272116727837
  0
LINE
  8
0
  6
CONTINUOUS
 62
     4
 10
-87.843407860326835
 20
 129.1227211672784
 11
-87.843407860326835
 21
 151.12272116727837
  0
LINE
  8
0
  6
CONTINUOUS
 62
     4
 10
-52.843407860326778
 20
 156.12272116727837
 11
-6.8434078603267565
 21
 156.12272116727837
  0
LINE
  8
0
  6
CONTINUOUS
 62
     4
 10
-52.843407860326778
 20
 156.12272116727837
 11
-52.843407860326778
 21
 150.1227211672784
  0
LINE
  8
0
  6
CONTINUOUS
 62
     4
 10
-87.843407860326835
 20
 129.1227211672784
 11
-52.843407860326778
 21
 129.1227211672784
  0
LINE
  8
0
  6
CONTINUOUS
 62
     4
 10
-99.843407860326835
 20
 114.1227211672784
 11
-85.493407860326755
 21
 114.1227211672784
  0
LINE
  8
0
  6
CONTINUOUS
 62
     4
 10
-70.193407860326772
 20
 114.12272116727841
 11
 12.156612139673591
 21
 114.12272116727834
  0
LINE
  8
0
  6
CONTINUOUS
 62
     4
 10
-80.843407860326778
 20
 150.1227211672784
 11
-82.843407860326778
 21
 148.1227211672784
  0
LINE
  8
0
  6
CONTINUOUS
 62
     4
 10
-82.843407860326778
 20
 132.1227211672784
 11
-80.843407860326778
 21
 130.1227211672784
  0
LINE
  8
0
  6
CONTINUOUS
 62
     4
 10
-46.843407860326785
 20
 156.12272116727837
 11
-46.843407860326785
 21
 150.1227211672784
  0
LINE
  8
0
  6
CONTINUOUS
 62
     4
 10
-40.843407860326785
 20
 156.12272116727837
 11
-40.843407860326785
 21
 150.1227211672784
  0
LINE
  8
0
  6
CENTER
 62
     7
 10
-46.843407860326785
 20
 156.12272116727837
 11
-40.843407860326785
 21
 150.1227211672784
  0
LINE
  8
0
  6
CENTER
 62
     7
 10
-40.843407860326785
 20
 156.12272116727837
 11
-46.843407860326785
 21
 150.1227211672784
  0
LINE
  8
0
  6
CONTINUOUS
 62
     4
 10
-34.843407860326785
 20
 156.12272116727837
 11
-34.843407860326785
 21
 150.1227211672784
  0
LINE
  8
0
  6
CENTER
 62
     7
 10
-40.843407860326785
 20
 156.12272116727837
 11
-34.843407860326785
 21
 150.1227211672784
  0
LINE
  8
0
  6
CENTER
 62
     7
 10
-34.843407860326785
 20
 156.12272116727837
 11
-40.843407860326785
 21
 150.1227211672784
  0
LINE
  8
0
  6
CONTINUOUS
 62
     4
 10
-28.843407860326771
 20
 156.12272116727837
 11
-28.843407860326771
 21
 150.1227211672784
  0
LINE
  8
0
  6
CENTER
 62
     7
 10
-34.843407860326771
 20
 156.12272116727837
 11
-28.843407860326771
 21
 150.1227211672784
  0
LINE
  8
0
  6
CENTER
 62
     7
 10
-28.843407860326771
 20
 156.12272116727837
 11
-34.843407860326771
 21
 150.1227211672784
  0
LINE
  8
0
  6
CONTINUOUS
 62
     4
 10
-22.843407860326757
 20
 156.12272116727837
 11
-22.843407860326757
 21
 150.1227211672784
  0
LINE
  8
0
  6
CENTER
 62
     7
 10
-28.84340786032676
 20
 156.12272116727837
 11
-22.843407860326757
 21
 150.1227211672784
  0
LINE
  8
0
  6
CENTER
 62
     7
 10
-22.843407860326757
 20
 156.12272116727837
 11
-28.84340786032676
 21
 150.1227211672784
  0
LINE
  8
0
  6
CONTINUOUS
 62
     4
 10
-16.843407860326757
 20
 156.12272116727837
 11
-16.843407860326757
 21
 150.1227211672784
  0
LINE
  8
0
  6
CENTER
 62
     7
 10
-22.843407860326757
 20
 156.12272116727837
 11
-16.843407860326757
 21
 150.1227211672784
  0
LINE
  8
0
  6
CENTER
 62
     7
 10
-16.843407860326757
 20
 156.12272116727837
 11
-22.843407860326757
 21
 150.1227211672784
  0
LINE
  8
0
  6
CONTINUOUS
 62
     3
 10
-6.8434078603267565
 20
 161.12272116727837
 11
-6.8434078603267565
 21
 150.1227211672784
  0
LINE
  8
0
  6
CONTINUOUS
 62
     3
 10
-13.843407860326757
 20
 156.12272116727837
 11
-13.843407860326757
 21
 161.12272116727837
  0
LINE
  8
0
  6
CONTINUOUS
 62
     3
 10
-11.843407860326757
 20
 160.12272116727837
 11
 14.156592139673236
 21
 160.12272116727837
  0
LINE
  8
0
  6
CONTINUOUS
 62
     3
 10
-11.843407860326757
 20
 160.12272116727837
 11
-11.843407860326757
 21
 161.12272116727837
  0
LINE
  8
0
  6
CENTER
 62
     7
 10
-11.843407860326757
 20
 161.12272116727837
 11
 14.156592139673236
 21
 161.12272116727837
  0
LINE
  8
0
  6
CONTINUOUS
 62
     3
 10
-13.843407860326757
 20
 161.12272116727837
 11
-11.843407860326757
 21
 161.12272116727837
  0
LINE
  8
0
  6
CONTINUOUS
 62
     3
 10
 12.156612139673619
 20
 166.12272116727837
 11
 12.156612139673619
 21
 160.12272116727837
  0
LINE
  8
0
  6
CONTINUOUS
 62
     3
 10
 28.156592139673243
 20
 166.12272116727888
 11
 28.156592139673243
 21
 152.12272116727837
  0
LINE
  8
0
  6
CONTINUOUS
 62
     3
 10
 14.156592139673236
 20
 166.12272116727837
 11
 14.156592139673236
 21
 160.12272116727837
  0
LINE
  8
0
  6
CONTINUOUS
 62
     3
 10
-6.8434078603267565
 20
 152.12272116727837
 11
 28.156592139673243
 21
 152.12272116727837
  0
LINE
  8
0
  6
CONTINUOUS
 62
     3
 10
 14.156592139673236
 20
 166.12272116727837
 11
 28.156592139673243
 21
 166.12272116727837
  0
LINE
  8
0
  6
CENTER
 62
     7
 10
 21.156592139673243
 20
 170.93446964785812
 11
 21.156592139673243
 21
 153.22119014118675
  0
LINE
  8
0
  6
CONTINUOUS
 62
     3
 10
 24.156592139673243
 20
 166.12272116727837
 11
 24.156592139673243
 21
 156.12272116727837
  0
LINE
  8
0
  6
CONTINUOUS
 62
     3
 10
 18.156592139673236
 20
 166.12272116727837
 11
 18.156592139673236
 21
 156.12272116727837
  0
LINE
  8
0
  6
CONTINUOUS
 62
     3
 10
 18.156592139673236
 20
 156.12272116727837
 11
 24.156592139673243
 21
 156.12272116727837
  0
LINE
  8
0
  6
CONTINUOUS
 62
     3
 10
 11.156612139673626
 20
 166.12272116727837
 11
 11.156612139673626
 21
 180.12272116727837
  0
LINE
  8
0
  6
CONTINUOUS
 62
     3
 10
 11.156612139673626
 20
 180.12272116727837
 11
-0.8433878603263807
 21
 180.12272116727837
  0
LINE
  8
0
  6
CONTINUOUS
 62
     3
 10
 57.156592139673215
 20
 146.1227211672784
 11
 57.156592139673215
 21
 134.1227211672784
  0
LINE
  8
0
  6
CONTINUOUS
 62
     3
 10
 57.156592139673215
 20
 146.1227211672784
 11
 42.156592139673215
 21
 146.1227211672784
  0
LINE
  8
0
  6
CONTINUOUS
 62
     3
 10
 42.156592139673215
 20
 134.1227211672784
 11
 57.156592139673215
 21
 134.1227211672784
  0
LINE
  8
0
  6
CONTINUOUS
 62
     3
 10
 42.156592139673215
 20
 150.1227211672784
 11
 42.156592139673215
 21
 130.1227211672784
  0
LINE
  8
0
  6
CONTINUOUS
 62
     3
 10
 28.156592139673215
 20
 148.6227211672784
 11
 38.156592139673215
 21
 148.6227211672784
  0
LINE
  8
0
  6
CONTINUOUS
 62
     3
 10
 28.156592139673215
 20
 131.6227211672784
 11
 38.156592139673215
 21
 131.6227211672784
  0
LINE
  8
0
  6
CONTINUOUS
 62
     4
 10
-80.843407860326778
 20
 130.1227211672784
 11
 28.156592139673215
 21
 130.1227211672784
  0
LINE
  8
0
  6
CONTINUOUS
 62
     4
 10
 38.156592139673215
 20
 130.1227211672784
 11
 104.72335015062033
 21
 130.1227211672784
  0
LINE
  8
0
  6
CONTINUOUS
 62
     4
 10
-80.843407860326778
 20
 150.1227211672784
 11
 28.156592139673215
 21
 150.1227211672784
  0
LINE
  8
0
  6
CONTINUOUS
 62
     4
 10
 38.156592139673215
 20
 150.1227211672784
 11
 109.96087046612128
 21
 150.1227211672784
  0
LINE
  8
0
  6
CONTINUOUS
 62
     3
 10
 28.156592139673215
 20
 150.1227211672784
 11
 28.156592139673215
 21
 148.6227211672784
  0
LINE
  8
0
  6
CONTINUOUS
 62
     3
 10
 28.156592139673215
 20
 131.6227211672784
 11
 28.156592139673215
 21
 130.1227211672784
  0
LINE
  8
0
  6
CONTINUOUS
 62
     3
 10
 38.156592139673215
 20
 150.1227211672784
 11
 38.156592139673215
 21
 148.6227211672784
  0
LINE
  8
0
  6
CONTINUOUS
 62
     3
 10
 38.156592139673215
 20
 131.6227211672784
 11
 38.156592139673215
 21
 130.1227211672784
  0
LINE
  8
0
  6
CENTER
 62
     7
 10
 28.156592139673215
 20
 145.1227211672784
 11
 38.156592139673215
 21
 135.1227211672784
  0
LINE
  8
0
  6
CENTER
 62
     7
 10
 38.156592139673215
 20
 145.1227211672784
 11
 28.156592139673215
 21
 135.1227211672784
  0
LINE
  8
0
  6
CENTER
 62
     7
 10
 5.1566121396736193
 20
 184.93446964785812
 11
 5.1566121396736193
 21
 167.22119014118675
  0
LINE
  8
0
  6
CONTINUOUS
 62
     3
 10
 8.1566121396736193
 20
 180.12272116727837
 11
 8.1566121396736193
 21
 170.12272116727837
  0
LINE
  8
0
  6
CONTINUOUS
 62
     3
 10
 2.1566121396736122
 20
 180.12272116727837
 11
 2.1566121396736122
 21
 170.12272116727837
  0
LINE
  8
0
  6
CONTINUOUS
 62
     3
 10
 2.1566121396736122
 20
 170.12272116727837
 11
 8.1566121396736193
 21
 170.12272116727837
  0
LINE
  8
0
  6
CENTER
 62
     7
 10
-0.8433878603263807
 20
 165.12272116727837
 11
 12.156612139673619
 21
 165.12272116727837
  0
LINE
  8
0
  6
CONTINUOUS
 62
     4
 10
-52.843407860326778
 20
 150.62272116727837
 11
-46.843407860326785
 21
 150.62272116727837
  0
LINE
  8
0
  6
CONTINUOUS
 62
     4
 10
-16.843407860326757
 20
 150.62272116727837
 11
-6.8434078603267565
 21
 150.62272116727837
  0
LINE
  8
0
  6
CENTER
 62
     7
 10
-8.3433878603263807
 20
 197.79101622898293
 11
-8.3433878603263807
 21
 166.12272116727837
  0
LINE
  8
0
  6
CONTINUOUS
 62
     4
 10
-0.8433878603263807
 20
 187.62275516727834
 11
-5.3433878603263807
 21
 187.62275516727834
  0
LINE
  8
0
  6
CONTINUOUS
 62
     4
 10
-11.343387860326381
 20
 187.62275516727834
 11
-15.843387860326381
 21
 187.62275516727834
  0
LINE
  8
0
  6
CONTINUOUS
 62
     4
 10
-15.843387860326381
 20
 187.62275516727834
 11
-15.843387860326381
 21
 166.12272116727837
  0
LINE
  8
0
  6
CONTINUOUS
 62
     3
 10
-0.8433878603263807
 20
 187.62275516727834
 11
-0.8433878603263807
 21
 166.12272116727837
  0
LINE
  8
0
  6
CENTER
 62
     7
 10
-0.8433878603263807
 20
 165.12272116727837
 11
-0.8433878603263807
 21
 166.12272116727837
  0
LINE
  8
0
  6
CONTINUOUS
 62
     4
 10
-52.843407860326778
 20
 124.12272116727839
 11
-6.8434078603267565
 21
 124.12272116727839
  0
LINE
  8
0
  6
CONTINUOUS
 62
     4
 10
-52.843407860326778
 20
 124.12272116727839
 11
-52.843407860326778
 21
 130.1227211672784
  0
LINE
  8
0
  6
CONTINUOUS
 62
     4
 10
-46.843407860326785
 20
 124.12272116727839
 11
-46.843407860326785
 21
 130.1227211672784
  0
LINE
  8
0
  6
CONTINUOUS
 62
     4
 10
-40.843407860326785
 20
 124.12272116727839
 11
-40.843407860326785
 21
 130.1227211672784
  0
LINE
  8
0
  6
CENTER
 62
     7
 10
-46.843407860326785
 20
 124.12272116727839
 11
-40.843407860326785
 21
 130.1227211672784
  0
LINE
  8
0
  6
CENTER
 62
     7
 10
-40.843407860326785
 20
 124.12272116727839
 11
-46.843407860326785
 21
 130.1227211672784
  0
LINE
  8
0
  6
CONTINUOUS
 62
     4
 10
-34.843407860326785
 20
 124.12272116727839
 11
-34.843407860326785
 21
 130.1227211672784
  0
LINE
  8
0
  6
CENTER
 62
     7
 10
-40.843407860326785
 20
 124.12272116727839
 11
-34.843407860326785
 21
 130.1227211672784
  0
LINE
  8
0
  6
CENTER
 62
     7
 10
-34.843407860326785
 20
 124.12272116727839
 11
-40.843407860326785
 21
 130.1227211672784
  0
LINE
  8
0
  6
CONTINUOUS
 62
     4
 10
-28.843407860326771
 20
 124.12272116727839
 11
-28.843407860326771
 21
 130.1227211672784
  0
LINE
  8
0
  6
CENTER
 62
     7
 10
-34.843407860326771
 20
 124.12272116727839
 11
-28.843407860326771
 21
 130.1227211672784
  0
LINE
  8
0
  6
CENTER
 62
     7
 10
-28.843407860326771
 20
 124.12272116727839
 11
-34.843407860326771
 21
 130.1227211672784
  0
LINE
  8
0
  6
CONTINUOUS
 62
     4
 10
-22.843407860326757
 20
 124.12272116727839
 11
-22.843407860326757
 21
 130.1227211672784
  0
LINE
  8
0
  6
CENTER
 62
     7
 10
-28.84340786032676
 20
 124.12272116727839
 11
-22.843407860326757
 21
 130.1227211672784
  0
LINE
  8
0
  6
CENTER
 62
     7
 10
-22.843407860326757
 20
 124.12272116727839
 11
-28.84340786032676
 21
 130.1227211672784
  0
LINE
  8
0
  6
CONTINUOUS
 62
     4
 10
-16.843407860326757
 20
 124.12272116727839
 11
-16.843407860326757
 21
 130.1227211672784
  0
LINE
  8
0
  6
CENTER
 62
     7
 10
-22.843407860326757
 20
 124.12272116727839
 11
-16.843407860326757
 21
 130.1227211672784
  0
LINE
  8
0
  6
CENTER
 62
     7
 10
-16.843407860326757
 20
 124.12272116727839
 11
-22.843407860326757
 21
 130.1227211672784
  0
LINE
  8
0
  6
CONTINUOUS
 62
     3
 10
-6.8434078603267565
 20
 119.12272116727839
 11
-6.8434078603267565
 21
 130.1227211672784
  0
LINE
  8
0
  6
CONTINUOUS
 62
     3
 10
-13.843407860326757
 20
 124.12272116727839
 11
-13.843407860326757
 21
 119.12272116727839
  0
LINE
  8
0
  6
CONTINUOUS
 62
     3
 10
-11.843407860326757
 20
 120.12272116727839
 11
 14.156592139673236
 21
 120.12272116727839
  0
LINE
  8
0
  6
CONTINUOUS
 62
     3
 10
-11.843407860326757
 20
 120.12272116727839
 11
-11.843407860326757
 21
 119.12272116727839
  0
LINE
  8
0
  6
CENTER
 62
     7
 10
-11.843407860326757
 20
 119.12272116727839
 11
 14.156592139673236
 21
 119.12272116727839
  0
LINE
  8
0
  6
CONTINUOUS
 62
     3
 10
-13.843407860326757
 20
 119.12272116727839
 11
-11.843407860326757
 21
 119.12272116727839
  0
LINE
  8
0
  6
CONTINUOUS
 62
     3
 10
 12.156612139673619
 20
 114.1227211672784
 11
 12.156612139673619
 21
 120.12272116727839
  0
LINE
  8
0
  6
CONTINUOUS
 62
     3
 10
 14.156592139673236
 20
 114.1227211672784
 11
 14.156592139673236
 21
 120.12272116727839
  0
LINE
  8
0
  6
CONTINUOUS
 62
     3
 10
 24.156592139673243
 20
 114.1227211672784
 11
 24.156592139673243
 21
 124.12272116727839
  0
LINE
  8
0
  6
CONTINUOUS
 62
     3
 10
 18.156592139673236
 20
 114.1227211672784
 11
 18.156592139673236
 21
 124.12272116727839
  0
LINE
  8
0
  6
CONTINUOUS
 62
     3
 10
 18.156592139673236
 20
 124.12272116727839
 11
 24.156592139673243
 21
 124.12272116727839
  0
LINE
  8
0
  6
CONTINUOUS
 62
     3
 10
 2.1566121396736122
 20
 110.12272116727841
 11
 8.1566121396736193
 21
 110.12272116727841
  0
LINE
  8
0
  6
CENTER
 62
     7
 10
-0.8433878603263807
 20
 115.1227211672784
 11
 12.156612139673619
 21
 115.1227211672784
  0
LINE
  8
0
  6
CONTINUOUS
 62
     4
 10
-52.843407860326778
 20
 129.6227211672784
 11
-46.843407860326785
 21
 129.6227211672784
  0
LINE
  8
0
  6
CONTINUOUS
 62
     4
 10
-16.843407860326757
 20
 129.6227211672784
 11
-6.8434078603267565
 21
 129.6227211672784
  0
LINE
  8
0
  6
CENTER
 62
     7
 10
-0.8433878603263807
 20
 115.1227211672784
 11
-0.8433878603263807
 21
 114.1227211672784
  0
LINE
  8
0
  6
CONTINUOUS
 62
     3
 10
 28.156592139673243
 20
 114.12272116727789
 11
 28.156592139673243
 21
 128.1227211672784
  0
LINE
  8
0
  6
CONTINUOUS
 62
     3
 10
-6.8434078603267565
 20
 128.1227211672784
 11
 28.156592139673243
 21
 128.1227211672784
  0
LINE
  8
0
  6
CONTINUOUS
 62
     3
 10
 14.156592139673236
 20
 114.1227211672784
 11
 28.156592139673243
 21
 114.1227211672784
  0
LINE
  8
0
  6
CENTER
 62
     7
 10
 21.156592139673243
 20
 109.31097268669866
 11
 21.156592139673243
 21
 127.02425219337009
  0
LINE
  8
0
  6
CONTINUOUS
 62
     3
 10
 11.156612139673626
 20
 114.1227211672784
 11
 11.156612139673626
 21
 100.12272116727841
  0
LINE
  8
0
  6
CONTINUOUS
 62
     3
 10
 11.156612139673626
 20
 100.12272116727841
 11
-0.8433878603263807
 21
 100.12272116727841
  0
LINE
  8
0
  6
CENTER
 62
     7
 10
 5.1566121396736193
 20
 100.31097268669866
 11
 5.1566121396736193
 21
 118.02425219337009
  0
LINE
  8
0
  6
CONTINUOUS
 62
     3
 10
 8.1566121396736193
 20
 100.12272116727841
 11
 8.1566121396736193
 21
 110.12272116727841
  0
LINE
  8
0
  6
CONTINUOUS
 62
     3
 10
 2.1566121396736122
 20
 100.12272116727841
 11
 2.1566121396736122
 21
 110.12272116727841
  0
LINE
  8
0
  6
CONTINUOUS
 62
     4
 10
-15.843387860326381
 20
 92.622687167278471
 11
 83.156574139673495
 21
 92.622687167278457
  0
LINE
  8
0
  6
CONTINUOUS
 62
     4
 10
-15.843387860326381
 20
 92.622687167278471
 11
-15.843387860326381
 21
 114.1227211672784
  0
LINE
  8
0
  6
CONTINUOUS
 62
     3
 10
-0.8433878603263807
 20
 92.622687167278471
 11
-0.8433878603263807
 21
 114.1227211672784
  0
LINE
  8
0
  6
CONTINUOUS
 62
     4
 10
-0.8433878603263807
 20
 184.62275516727834
 11
 71.156574139673495
 21
 184.62275516727834
  0
LINE
  8
0
  6
CONTINUOUS
 62
     4
 10
 71.156574139673495
 20
 187.62275516727834
 11
 83.156574139673495
 21
 187.62275516727834
  0
LINE
  8
0
  6
CONTINUOUS
 62
     4
 10
-0.8433878603263807
 20
 97.622687167278471
 11
 71.156574139673495
 21
 97.622687167278471
  0
LINE
  8
0
  6
CONTINUOUS
 62
     4
 10
 71.156574139673495
 20
 187.62275516727834
 11
 71.156574139673495
 21
 150.1227211672784
  0
LINE
  8
0
  6
CONTINUOUS
 62
     4
 10
 71.156574139673495
 20
 130.1227211672784
 11
 71.156574139673495
 21
 92.622687167278457
  0
LINE
  8
0
  6
CONTINUOUS
 62
     3
 10
 42.156592139673215
 20
 165.1227211672784
 11
 42.156592139673215
 21
 150.1227211672784
  0
LINE
  8
0
  6
CONTINUOUS
 62
     3
 10
 39.156592139673215
 20
 165.1227211672784
 11
 39.156592139673215
 21
 150.1227211672784
  0
LINE
  8
0
  6
CONTINUOUS
 62
     3
 10
 39.156592139673215
 20
 165.1227211672784
 11
 42.156592139673215
 21
 165.1227211672784
  0
LINE
  8
0
  6
CONTINUOUS
 62
     3
 10
 39.156592139673215
 20
 115.1227211672784
 11
 42.156592139673215
 21
 115.1227211672784
  0
LINE
  8
0
  6
CONTINUOUS
 62
     3
 10
 42.156592139673215
 20
 115.1227211672784
 11
 42.156592139673215
 21
 130.1227211672784
  0
LINE
  8
0
  6
CONTINUOUS
 62
     3
 10
 39.156592139673215
 20
 115.1227211672784
 11
 39.156592139673215
 21
 130.1227211672784
  0
LINE
  8
0
  6
CENTER
 62
     7
 10
 42.156592139673215
 20
 147.1227211672784
 11
 58.156592139673215
 21
 147.1227211672784
  0
LINE
  8
0
  6
CONTINUOUS
 62
     3
 10
 58.156592139673215
 20
 147.1227211672784
 11
 58.156592139673215
 21
 133.1227211672784
  0
LINE
  8
0
  6
CENTER
 62
     7
 10
 42.156592139673215
 20
 133.1227211672784
 11
 58.156592139673215
 21
 133.1227211672784
  0
LINE
  8
0
  6
CONTINUOUS
 62
     3
 10
 58.156592139673215
 20
 147.1227211672784
 11
 59.656592139673215
 21
 140.1227211672784
  0
LINE
  8
0
  6
CONTINUOUS
 62
     3
 10
 59.656592139673215
 20
 140.1227211672784
 11
 58.156592139673215
 21
 133.1227211672784
  0
LINE
  8
0
  6
CONTINUOUS
 62
     3
 10
 57.156592139673215
 20
 146.1227211672784
 11
 58.156592139673215
 21
 146.1227211672784
  0
LINE
  8
0
  6
CONTINUOUS
 62
     3
 10
 57.156592139673215
 20
 134.1227211672784
 11
 58.156592139673215
 21
 134.1227211672784
  0
LINE
  8
0
  6
CONTINUOUS
 62
     3
 10
 83.156574139673495
 20
 175.62275516727834
 11
 88.156574139673495
 21
 175.62275516727834
  0
LINE
  8
0
  6
CONTINUOUS
 62
     3
 10
 88.156574139673495
 20
 170.62275516727834
 11
 83.156574139673495
 21
 170.62275516727834
  0
LINE
  8
0
  6
CONTINUOUS
 62
     3
 10
 88.156574139673495
 20
 170.62275516727834
 11
 88.156574139673495
 21
 175.62275516727834
  0
LINE
  8
0
  6
CONTINUOUS
 62
     3
 10
 88.156574139673495
 20
 157.1227211672784
 11
 88.156574139673495
 21
 163.62275516727834
  0
LINE
  8
0
  6
CONTINUOUS
 62
     3
 10
 83.156574139673495
 20
 163.62275516727834
 11
 88.156574139673495
 21
 163.62275516727834
  0
LINE
  8
0
  6
CONTINUOUS
 62
     3
 10
 107.69641947682501
 20
 157.1227211672784
 11
 88.156574139673495
 21
 157.1227211672784
  0
LINE
  8
0
  6
CONTINUOUS
 62
     4
 10
 83.156574139673495
 20
 187.62275516727834
 11
 83.156574139673495
 21
 175.62275516727834
  0
LINE
  8
0
  6
CONTINUOUS
 62
     4
 10
 83.156574139673495
 20
 170.62275516727834
 11
 83.156574139673495
 21
 163.62275516727834
  0
CIRCLE
  8
0
  6
CONTINUOUS
 62
     3
 10
 86.156574139673495
 20
 167.12275516727834
 40
 3
  0
CIRCLE
  8
0
  6
CONTINUOUS
 62
     3
 10
 96.156574139673495
 20
 167.12275516727834
 40
 3
  0
LINE
  8
0
  6
CONTINUOUS
 62
     3
 10
 83.156574139673495
 20
 104.62268716727846
 11
 88.156574139673495
 21
 104.62268716727846
  0
LINE
  8
0
  6
CONTINUOUS
 62
     3
 10
 88.156574139673495
 20
 109.62268716727846
 11
 83.156574139673495
 21
 109.62268716727846
  0
LINE
  8
0
  6
CONTINUOUS
 62
     3
 10
 88.156574139673495
 20
 109.62268716727846
 11
 88.156574139673495
 21
 104.62268716727846
  0
LINE
  8
0
  6
CONTINUOUS
 62
     3
 10
 88.156574139673495
 20
 123.12272116727839
 11
 88.156574139673495
 21
 116.62268716727847
  0
LINE
  8
0
  6
CONTINUOUS
 62
     3
 10
 83.156574139673495
 20
 116.62268716727847
 11
 88.156574139673495
 21
 116.62268716727847
  0
LINE
  8
0
  6
CONTINUOUS
 62
     3
 10
 88.156574139673495
 20
 123.12272116727839
 11
 104.06899295675203
 21
 123.12272116727839
  0
LINE
  8
0
  6
CONTINUOUS
 62
     4
 10
 83.156574139673495
 20
 109.62268716727846
 11
 83.156574139673495
 21
 116.62268716727847
  0
CIRCLE
  8
0
  6
CONTINUOUS
 62
     3
 10
 86.156574139673495
 20
 113.12268716727846
 40
 3
  0
CIRCLE
  8
0
  6
CONTINUOUS
 62
     3
 10
 96.156574139673495
 20
 113.12268716727846
 40
 3
  0
LINE
  8
0
  6
CONTINUOUS
 62
     4
 10
 83.156574139673495
 20
 92.622687167278457
 11
 83.156574139673495
 21
 104.62268716727846
  0
TEXT
  8
218
  6
CONTINUOUS
 62
     96
 10
-27.068831164892512
 20
-197.0802856728576
 11
-15.76216449822584
 21
-197.08028567285757
 40
 6.4000000000000012
 41
 0.8
  1
番号
 50
 0.0000000000000495
 72
  5
  0
TEXT
  8
218
  6
CONTINUOUS
 62
     96
 10
 3.5753415090837892
 20
-197.0802856728576
 11
 35.148674842417122
 21
-197.08028567285754
 40
 6.4000000000000012
 41
 0.8
  1
名称
 50
 0.0000000000000495
 72
  5
  0
TEXT
  8
218
  6
CONTINUOUS
 62
     96
 10
 130.99457140888455
 20
-197.08028567285757
 11
 142.30123807555123
 21
-197.08028567285754
 40
 6.4000000000000012
 41
 0.8
  1
数量
 50
 0.0000000000000495
 72
  5
  0
TEXT
  8
218
  6
CONTINUOUS
 62
     96
 10
-26.283311761269939
 20
-94.680000000000362
 11
-16.043311761269937
 21
-94.680000000000362
 40
 6.4000000000000012
 41
 0.8
  1
10
 50
 0.0000000000000495
 72
  5
  0
TEXT
  8
218
  6
CONTINUOUS
 62
     96
 10
-26.283311761269939
 20
-84.440000000000239
 11
-16.043311761269937
 21
-84.440000000000239
 40
 6.4000000000000012
 41
 0.8
  1
11
 50
 0.0000000000000495
 72
  5
  0
TEXT
  8
218
  6
CONTINUOUS
 62
     96
 10
-26.283311761269825
 20
-74.200000000000273
 11
-16.043311761269823
 21
-74.200000000000273
 40
 6.4000000000000012
 41
 0.8
  1
12
 50
 0.0000000000000495
 72
  5
  0
TEXT
  8
218
  6
CONTINUOUS
 62
     96
 10
-26.283311761269939
 20
-63.960000000000285
 11
-16.043311761269937
 21
-63.960000000000285
 40
 6.4000000000000012
 41
 0.8
  1
13
 50
 0.0000000000000495
 72
  5
  0
TEXT
  8
218
  6
CONTINUOUS
 62
     96
 10
-26.283311761270109
 20
-53.720000000000262
 11
-16.043311761270107
 21
-53.720000000000262
 40
 6.4000000000000012
 41
 0.8
  1
14
 50
 0.0000000000000495
 72
  5
  0
TEXT
  8
218
  6
CONTINUOUS
 62
     96
 10
-26.283311761269939
 20
-43.480000000000267
 11
-16.043311761269937
 21
-43.480000000000267
 40
 6.4000000000000012
 41
 0.8
  1
15
 50
 0.0000000000000495
 72
  5
  0
TEXT
  8
218
  6
CONTINUOUS
 62
     96
 10
-26.283311761270109
 20
-33.240000000000308
 11
-16.043311761270107
 21
-33.2400000000003
 40
 6.4000000000000012
 41
 0.8
  1
16
 50
 0.0000000000000495
 72
  5
  0
TEXT
  8
218
  6
CONTINUOUS
 62
     96
 10
-26.283311761270109
 20
-23.000000000000288
 11
-16.043311761270107
 21
-23.000000000000274
 40
 6.4000000000000012
 41
 0.8
  1
17
 50
 0.0000000000000495
 72
  5
  0
TEXT
  8
218
  6
CONTINUOUS
 62
     96
 10
-23.723311723123171
 20
-104.91942498814073
 11
-18.603311723123166
 21
-104.91942498814073
 40
 6.4000000000000012
 41
 0.8
  1
9
 50
 0.0000000000000495
 72
  5
  0
TEXT
  8
218
  6
CONTINUOUS
 62
     96
 10
-23.72331172312283
 20
-115.15886120384899
 11
-18.603311723122825
 21
-115.15886120384899
 40
 6.4000000000000012
 41
 0.8
  1
8
 50
 0.0000000000000495
 72
  5
  0
TEXT
  8
218
  6
CONTINUOUS
 62
     96
 10
-23.72331172312283
 20
-125.39828229671096
 11
-18.603311723122825
 21
-125.39828229671096
 40
 6.4000000000000012
 41
 0.8
  1
7
 50
 0.0000000000000495
 72
  5
  0
TEXT
  8
218
  6
CONTINUOUS
 62
     96
 10
-23.723311723123171
 20
-135.63770728485133
 11
-18.603311723123166
 21
-135.6377072848513
 40
 6.4000000000000012
 41
 0.8
  1
6
 50
 0.0000000000000495
 72
  5
  0
TEXT
  8
218
  6
CONTINUOUS
 62
     96
 10
-23.723311723123171
 20
-145.87713593913651
 11
-18.603311723123166
 21
-145.87713593913648
 40
 6.4000000000000012
 41
 0.8
  1
5
 50
 0.0000000000000495
 72
  5
  0
TEXT
  8
218
  6
CONTINUOUS
 62
     96
 10
-23.723311723123171
 20
-156.11656081270999
 11
-18.603311723123166
 21
-156.11656081270996
 40
 6.4000000000000012
 41
 0.8
  1
4
 50
 0.0000000000000495
 72
  5
  0
TEXT
  8
218
  6
CONTINUOUS
 62
     96
 10
-23.72331172312283
 20
-166.35598580085062
 11
-18.603311723122825
 21
-166.35598580085059
 40
 6.4000000000000012
 41
 0.8
  1
3
 50
 0.0000000000000495
 72
  5
  0
TEXT
  8
218
  6
CONTINUOUS
 62
     96
 10
-23.72331172312283
 20
-176.59541823584729
 11
-18.603311723122825
 21
-176.59541823584726
 40
 6.4000000000000012
 41
 0.8
  1
2
 50
 0.0000000000000495
 72
  5
  0
TEXT
  8
218
  6
CONTINUOUS
 62
     96
 10
-23.72331172312283
 20
-186.83484700469916
 11
-18.603311723122825
 21
-186.83484700469913
 40
 6.4000000000000012
 41
 0.8
  1
1
 50
 0.0000000000000495
 72
  5
  0
TEXT
  8
218
  6
CONTINUOUS
 62
     96
 10
-10.53034482996531
 20
-166.35483176728536
 11
 32.989654588747484
 21
-166.3548317672853
 40
 6.4000000000000012
 41
 0.8
  1
バルブガイド
 50
 0.0000000000000495
 72
  5
  0
TEXT
  8
218
  6
CONTINUOUS
 62
     96
 10
-10.530344829965367
 20
-145.87995806847144
 11
 20.189655170034637
 21
-145.87995806847138
 40
 6.4000000000000012
 41
 0.8
  1
ボールバルブ
 50
 0.0000000000000495
 72
  5
  0
TEXT
  8
218
  6
CONTINUOUS
 62
     96
 10
-10.530344829965481
 20
-135.64629534302989
 11
 30.429655170034529
 21
-135.64629534302981
 40
 6.4000000000000012
 41
 0.8
  1
リクィッドエンド
 50
 0.0000000000000662
 72
  5
  0
TEXT
  8
218
  6
CONTINUOUS
 62
     96
 10
-10.530344829965708
 20
-104.92170235130904
 11
 30.429655170034298
 21
-104.92170235130901
 40
 6.4000000000000012
 41
 0.8
  1
グランドフロアー
 50
 0.0000000000000495
 72
  5
  0
TEXT
  8
218
  6
CONTINUOUS
 62
     96
 10
-10.530344829965765
 20
-84.442258574177814
 11
 30.429655170034241
 21
-84.442258574177785
 40
 6.4000000000000012
 41
 0.8
  1
グランドキャップ
 50
 0.0000000000000495
 72
  5
  0
TEXT
  8
218
  6
CONTINUOUS
 62
     96
 10
-10.530344829965083
 20
-156.11538776101955
 11
 20.189655170034921
 21
-156.11538776101949
 40
 6.4000000000000012
 41
 0.8
  1
バルブシート
 50
 0.0000000000000495
 72
  5
  0
TEXT
  8
218
  6
CONTINUOUS
 62
     96
 10
-10.53034482996531
 20
-176.59428310583965
 11
 25.309654705004931
 21
-176.59428310583959
 40
 6.4000000000000012
 41
 0.8
  1
ガスケット
 50
 0.0000000000000495
 72
  5
  0
TEXT
  8
218
  6
CONTINUOUS
 62
     96
 10
 64.766589127845862
 20
-176.60143025464339
 11
 85.24658912784588
 21
-176.60143025464336
 40
 6.4000000000000012
 41
 0.8
  1
テフロン
 50
 0.0000000000000495
 72
  5
  0
TEXT
  8
218
  6
CONTINUOUS
 62
     96
 10
-10.530344829965935
 20
-63.961706246587312
 11
 20.189655170034069
 21
-63.961706246587305
 40
 6.4000000000000012
 41
 0.8
  1
プランジャー
 50
 0.0000000000000495
 72
  5
  0
TEXT
  8
218
  6
CONTINUOUS
 62
     96
 10
-10.530344829965765
 20
-53.7216908946071
 11
 35.549655170034242
 21
-53.721690894607072
 40
 6.4000000000000012
 41
 0.8
  1
クロスヘッドガイド
 50
 0.0000000000000495
 72
  5
  0
TEXT
  8
218
  6
CONTINUOUS
 62
     96
 10
-10.530344829965708
 20
-33.242235202505569
 11
 20.189655170034296
 21
-33.242235202505547
 40
 6.4000000000000012
 41
 0.8
  1
オイルシール
 50
 0.0000000000000495
 72
  5
  0
TEXT
  8
220
  6
CONTINUOUS
 62
     96
 10
-10.530344919883177
 20
-22.774285300002841
 11
 13.241083651545395
 21
-22.774285300002841
 40
 5.9428571428571431
 41
 0.8
  1
六角ボルト
 50
 0
 72
  5
  0
TEXT
  8
220
  6
CONTINUOUS
 62
     96
 10
-10.530344919883177
 20
-43.253142723139824
 11
 17.99536936583111
 21
-43.253142723139831
 40
 5.9428571428571431
 41
 0.8
  1
クロスヘッド
 50
 0
 72
  5
  0
TEXT
  8
218
  6
CONTINUOUS
 62
     96
 10
-10.530344829965481
 20
-186.83999610472154
 11
 20.189655170034523
 21
-186.83999610472148
 40
 6.4000000000000012
 41
 0.8
  1
出入口ノズル
 50
 0.0000000000000495
 72
  5
  0
TEXT
  8
218
  6
CONTINUOUS
 62
     96
 10
 146.78150052809082
 20
-186.83999610472142
 11
 167.26150052809083
 21
-186.83999610472137
 40
 6.4000000000000012
 41
 0.8
  1
Ｒ３／８
 50
 0.0000000000000495
 72
  5
  0
TEXT
  8
218
  6
CONTINUOUS
 62
     96
 10
 59.646589127845878
 20
-186.84085890892837
 11
 90.36658912784587
 21
-186.84085890892834
 40
 6.4000000000000012
 41
 0.8
  1
SUS304
 50
 0.0000000000000495
 72
  5
  0
TEXT
  8
218
  6
CONTINUOUS
 62
     96
 10
-10.530344829965481
 20
-125.40685912732181
 11
 25.309655170034524
 21
-125.40685912732175
 40
 6.4000000000000012
 41
 0.8
  1
ネックブッシュ
 50
 0.0000000000000662
 72
  5
  0
TEXT
  8
218
  6
CONTINUOUS
 62
     96
 10
-10.530344829965708
 20
-94.682277477735369
 11
 20.189655170034296
 21
-94.68227747773534
 40
 6.4000000000000012
 41
 0.8
  1
ロックナット
 50
 0.0000000000000495
 72
  5
  0
TEXT
  8
218
  6
CONTINUOUS
 62
     96
 10
-10.530344829965481
 20
-115.16742646319095
 11
 30.429655170034529
 21
-115.16742646319091
 40
 6.4000000000000012
 41
 0.8
  1
グランドパッキン
 50
 0.0000000000000662
 72
  5
  0
TEXT
  8
218
  6
CONTINUOUS
 62
     96
 10
 131.52790478036485
 20
-176.60056366972489
 11
 141.76790478036486
 21
-176.60056366972486
 40
 6.4000000000000012
 41
 0.8
  1
10
 50
 0.0000000000000495
 72
  5
  0
TEXT
  8
218
  6
CONTINUOUS
 62
     96
 10
 134.08790478036485
 20
-166.36113868158426
 11
 139.20790478036486
 21
-166.36113868158424
 40
 6.4000000000000012
 41
 0.8
  1
4
 50
 0.0000000000000495
 72
  5
  0
TEXT
  8
218
  6
CONTINUOUS
 62
     96
 10
 134.08790478036485
 20
-156.12171002729929
 11
 139.20790478036486
 21
-156.12171002729926
 40
 6.4000000000000012
 41
 0.8
  1
4
 50
 0.0000000000000495
 72
  5
  0
TEXT
  8
218
  6
CONTINUOUS
 62
     96
 10
-10.530344829965708
 20
-74.203420054598226
 11
 9.9496551700342941
 21
-74.203420054598212
 40
 6.4000000000000012
 41
 0.8
  1
水切り板
 50
 0.0000000000000495
 72
  5
  0
LINE
  8
218
  6
CONTINUOUS
 62
     7
 10
-29.291981259064524
 20
-127.32400675229394
 11
 189.99999999999994
 21
-127.32400675229384
  0
LINE
  8
218
  6
CONTINUOUS
 62
     7
 10
-29.291981259064524
 20
-137.56343540657903
 11
 189.99999999999994
 21
-137.563435406579
  0
LINE
  8
218
  6
CONTINUOUS
 62
     7
 10
-29.291981259064524
 20
-147.80286028015254
 11
 189.99999999999994
 21
-147.80286028015223
  0
LINE
  8
218
  6
CONTINUOUS
 62
     7
 10
-29.291981259064524
 20
-158.04228526829309
 11
 189.99999999999994
 21
-158.04228526829291
  0
LINE
  8
218
  6
CONTINUOUS
 62
     7
 10
-29.291981259064524
 20
-168.28171770328967
 11
 189.99999999999994
 21
-168.28171770328942
  0
LINE
  8
218
  6
CONTINUOUS
 62
     7
 10
-29.291981259064524
 20
-178.52114647214171
 11
 189.99999999999994
 21
-178.52114647214154
  0
LINE
  8
218
  6
CONTINUOUS
 62
     7
 10
-29.291981259064524
 20
-45.408592297158592
 11
 189.99999999999994
 21
-45.40859229715835
  0
LINE
  8
218
  6
CONTINUOUS
 62
     7
 10
-29.291981259064524
 20
-55.648017170732004
 11
 189.99999999999994
 21
-55.648017170731961
  0
LINE
  8
218
  6
CONTINUOUS
 62
     7
 10
-29.291981259064524
 20
-65.887445939584211
 11
 189.99999999999994
 21
-65.887445939584211
  0
LINE
  8
218
  6
CONTINUOUS
 62
     7
 10
-29.291981259064524
 20
-76.126874593869232
 11
 189.99999999999994
 21
-76.126874593868976
  0
LINE
  8
218
  6
CONTINUOUS
 62
     7
 10
-29.291981259064524
 20
-86.366299467442758
 11
 189.99999999999994
 21
-86.366299467442758
  0
LINE
  8
218
  6
CONTINUOUS
 62
     7
 10
-29.291981259064524
 20
-96.605724455583498
 11
 189.99999999999994
 21
-96.605724455583101
  0
LINE
  8
218
  6
CONTINUOUS
 62
     7
 10
-29.291981259064524
 20
-106.84516067129152
 11
 189.99999999999994
 21
-106.8451606712913
  0
LINE
  8
218
  6
CONTINUOUS
 62
     7
 10
-29.291981259064524
 20
-117.08458176415344
 11
 189.99999999999994
 21
-117.08458176415321
  0
LINE
  8
218
  6
CONTINUOUS
 62
     7
 10
-29.291981259064524
 20
-24.929738654733015
 11
 189.99999999999994
 21
-24.929738654732773
  0
LINE
  8
218
  6
CONTINUOUS
 62
     7
 10
-29.291981259064524
 20
-35.169167423585108
 11
 189.99999999999994
 21
-35.169167423584838
  0
LINE
  8
218
  6
CONTINUOUS
 62
     7
 10
-29.291981259064524
 20
-14.690313781159517
 11
 189.99999999999994
 21
-14.690313781159306
  0
LINE
  8
218
  6
CONTINUOUS
 62
     7
 10
-29.291981259064524
 20
-188.76057134571516
 11
 189.99999999999994
 21
-188.76057134571499
  0
LINE
  8
218
  6
CONTINUOUS
 62
     7
 10
 189.99999999999994
 20
-199
 11
-29.291981259064524
 21
-199.00000000000023
  0
LINE
  8
218
  6
CONTINUOUS
 62
     7
 10
-29.291981259064524
 20
-199.00000000000011
 11
-29.291981259064517
 21
-14.690313781159318
  0
LINE
  8
218
  6
CONTINUOUS
 62
     7
 10
-13.539014327759958
 20
-199.00000000000011
 11
-13.539014327759947
 21
-14.690313781159318
  0
LINE
  8
218
  6
CONTINUOUS
 62
     7
 10
 56.834459326983392
 20
-199
 11
 56.834459326983406
 21
-14.690313781159318
  0
LINE
  8
218
  6
CONTINUOUS
 62
     7
 10
 93.178718928708349
 20
-193.88028567285755
 11
 93.178718928708363
 21
-14.690313781159318
  0
LINE
  8
218
  6
CONTINUOUS
 62
     7
 10
 143.77283103029623
 20
-199.00000000000009
 11
 143.77283103029623
 21
-14.69031378115929
  0
LINE
  8
218
  6
CONTINUOUS
 62
     7
 10
 189.99999999999994
 20
-199
 11
 189.99999999999994
 21
-14.690313781159306
  0
TEXT
  8
218
  6
CONTINUOUS
 62
     96
 10
 134.08790478036485
 20
-115.16400285701521
 11
 139.20790478036486
 21
-115.16400285701521
 40
 6.4000000000000012
 41
 0.8
  1
5
 50
 0.0000000000000495
 72
  5
  0
TEXT
  8
218
  6
CONTINUOUS
 62
     96
 10
 134.08790478036485
 20
-135.64285638487374
 11
 139.20790478036486
 21
-135.64285638487371
 40
 6.4000000000000012
 41
 0.8
  1
1
 50
 0.0000000000000495
 72
  5
  0
TEXT
  8
218
  6
CONTINUOUS
 62
     96
 10
 134.08790478036485
 20
-125.40343139673303
 11
 139.20790478036486
 21
-125.40343139673303
 40
 6.4000000000000012
 41
 0.8
  1
1
 50
 0.0000000000000495
 72
  5
  0
TEXT
  8
218
  6
CONTINUOUS
 62
     96
 10
 134.08790478036485
 20
-145.88227747773564
 11
 139.20790478036486
 21
-145.88227747773561
 40
 6.4000000000000012
 41
 0.8
  1
4
 50
 0.0000000000000495
 72
  5
  0
TEXT
  8
218
  6
CONTINUOUS
 62
     96
 10
 62.206589127845859
 20
-166.36200148579127
 11
 87.806589127845868
 21
-166.36200148579124
 40
 6.4000000000000012
 41
 0.8
  1
SCS14
 50
 0.0000000000000495
 72
  5
  0
TEXT
  8
218
  6
CONTINUOUS
 62
     96
 10
 59.646589127845878
 20
-156.12257271693912
 11
 90.36658912784587
 21
-156.12257271693909
 40
 6.4000000000000012
 41
 0.8
  1
SUS304
 50
 0.0000000000000495
 72
  5
  0
TEXT
  8
218
  6
CONTINUOUS
 62
     96
 10
 59.646589127845878
 20
-145.88314784336572
 11
 90.36658912784587
 21
-145.88314784336569
 40
 6.4000000000000012
 41
 0.8
  1
SUS304
 50
 0.0000000000000495
 72
  5
  0
TEXT
  8
218
  6
CONTINUOUS
 62
     96
 10
 59.646589127845878
 20
-135.64371907451346
 11
 90.36658912784587
 21
-135.64371907451343
 40
 6.4000000000000012
 41
 0.8
  1
SUS304
 50
 0.0000000000000495
 72
  5
  0
TEXT
  8
218
  6
CONTINUOUS
 62
     96
 10
 59.646589127845878
 20
-125.40429420094003
 11
 90.36658912784587
 21
-125.40429420094
 40
 6.4000000000000012
 41
 0.8
  1
SUS304
 50
 0.0000000000000495
 72
  5
  0
TEXT
  8
218
  6
CONTINUOUS
 62
     96
 10
 59.646589127845878
 20
-104.92544433922603
 11
 90.36658912784587
 21
-104.925444339226
 40
 6.4000000000000012
 41
 0.8
  1
SUS304
 50
 0.0000000000000495
 72
  5
  0
TEXT
  8
218
  6
CONTINUOUS
 62
     96
 10
 62.206589127845859
 20
-94.686011904229218
 11
 87.806589127845868
 21
-94.68601190422919
 40
 6.4000000000000012
 41
 0.8
  1
SS400
 50
 0.0000000000000495
 72
  5
  0
TEXT
  8
218
  6
CONTINUOUS
 62
     96
 10
 59.646589127845878
 20
-84.446587030655806
 11
 90.36658912784587
 21
-84.446587030655778
 40
 6.4000000000000012
 41
 0.8
  1
SUS304
 50
 0.0000000000000495
 72
  5
  0
TEXT
  8
218
  6
CONTINUOUS
 62
     96
 10
 67.326589127845864
 20
-74.207162042515208
 11
 82.686589127845878
 21
-74.207162042515208
 40
 6.4000000000000012
 41
 0.8
  1
PVC
 50
 0.0000000000000495
 72
  5
  0
TEXT
  8
218
  6
CONTINUOUS
 62
     96
 10
 59.646589127845878
 20
-63.967737168941795
 11
 90.36658912784587
 21
-63.967737168941788
 40
 6.4000000000000012
 41
 0.8
  1
SUS304
 50
 0.0000000000000495
 72
  5
  0
TEXT
  8
218
  6
CONTINUOUS
 62
     96
 10
 64.766589127845862
 20
-53.728308400089539
 11
 85.24658912784588
 21
-53.728308400089531
 40
 6.4000000000000012
 41
 0.8
  1
AC4B
 50
 0.0000000000000495
 72
  5
  0
TEXT
  8
218
  6
CONTINUOUS
 62
     96
 10
 69.886589127845866
 20
-43.488883526516126
 11
 80.126589127845875
 21
-43.488883526516119
 40
 6.4000000000000012
 41
 0.8
  1
SK
 50
 0.0000000000000495
 72
  5
  0
TEXT
  8
218
  6
CONTINUOUS
 62
     96
 10
 67.326589127845864
 20
-33.249458538375549
 11
 82.686589127845878
 21
-33.249458538375535
 40
 6.4000000000000012
 41
 0.8
  1
NBR
 50
 0.0000000000000495
 72
  5
  0
TEXT
  8
218
  6
CONTINUOUS
 62
     96
 10
 62.206589127845859
 20
-23.01003366480214
 11
 87.806589127845868
 21
-23.010033664802116
 40
 6.4000000000000012
 41
 0.8
  1
SS400
 50
 0.0000000000000495
 72
  5
  0
TEXT
  8
218
  6
CONTINUOUS
 62
     96
 10
 67.006589127845871
 20
-111.90500557619185
 11
 83.006589127845871
 21
-111.90500557619183
 40
 5
 41
 0.8
  1
テフロン
 50
 0.0000000000000495
 72
  5
  0
TEXT
  8
218
  6
CONTINUOUS
 62
     96
 10
 65.006589127845871
 20
-117.02471807026214
 11
 85.006589127845871
 21
-117.02471807026213
 40
 5
 41
 0.8
  1
アスベスト
 50
 0.0000000000000495
 72
  5
  0
TEXT
  8
218
  6
CONTINUOUS
 62
     96
 10
 146.78150052809082
 20
-23.009159747594612
 11
 177.50150052809082
 21
-23.00915974759458
 40
 6.4000000000000012
 41
 0.8
  1
Ｍ６×２５
 50
 0.0000000000000495
 72
  5
  0
TEXT
  8
218
  6
CONTINUOUS
 62
     96
 10
 146.78150052809082
 20
-33.248584621168121
 11
 182.62150052809082
 21
-33.248584621168092
 40
 6.4000000000000012
 41
 0.8
  1
ＴＣ２０３２８
 50
 0.0000000000000495
 72
  5
  0
LINE
  8
218
  6
CONTINUOUS
 62
     7
 10
 129.52297853043331
 20
-198.99999999999997
 11
 129.52297853043331
 21
-14.69031378115929
  0
TEXT
  8
218
  6
CONTINUOUS
 62
     96
 10
 95.990848729570828
 20
-186.84085890892837
 11
 126.71084872957081
 21
-186.84085890892834
 40
 6.4000000000000012
 41
 0.8
  1
SUS316
 50
 0.0000000000000495
 72
  5
  0
TEXT
  8
218
  6
CONTINUOUS
 62
     96
 10
 95.990848729570828
 20
-156.12256905079454
 11
 126.71084872957081
 21
-156.12256905079451
 40
 6.4000000000000012
 41
 0.8
  1
SUS316
 50
 0.0000000000000495
 72
  5
  0
TEXT
  8
218
  6
CONTINUOUS
 62
     96
 10
 95.990848729570828
 20
-145.88314406265403
 11
 126.71084872957081
 21
-145.883144062654
 40
 6.4000000000000012
 41
 0.8
  1
SUS316
 50
 0.0000000000000495
 72
  5
  0
TEXT
  8
218
  6
CONTINUOUS
 62
     96
 10
 95.990848729570828
 20
-135.64372296979209
 11
 126.71084872957081
 21
-135.64372296979207
 40
 6.4000000000000012
 41
 0.8
  1
SUS316
 50
 0.0000000000000495
 72
  5
  0
TEXT
  8
218
  6
CONTINUOUS
 62
     96
 10
 95.990848729570828
 20
-125.404286754084
 11
 126.71084872957081
 21
-125.40428675408397
 40
 6.4000000000000012
 41
 0.8
  1
SUS316
 50
 0.0000000000000495
 72
  5
  0
TEXT
  8
218
  6
CONTINUOUS
 62
     96
 10
 95.990848729570828
 20
-104.92543689236979
 11
 126.71084872957081
 21
-104.92543689236976
 40
 6.4000000000000012
 41
 0.8
  1
SUS316
 50
 0.0000000000000495
 72
  5
  0
TEXT
  8
218
  6
CONTINUOUS
 62
     96
 10
 95.990848729570828
 20
-84.44657946923266
 11
 126.71084872957081
 21
-84.446579469232631
 40
 6.4000000000000012
 41
 0.8
  1
SUS316
 50
 0.0000000000000495
 72
  5
  0
TEXT
  8
218
  6
CONTINUOUS
 62
     96
 10
 95.990848729570828
 20
-63.967729722085657
 11
 126.71084872957081
 21
-63.967729722085629
 40
 6.4000000000000012
 41
 0.8
  1
SUS316
 50
 0.0000000000000495
 72
  5
  0
TEXT
  8
218
  6
CONTINUOUS
 62
     96
 10
 134.08790478036485
 20
-186.83999610472142
 11
 139.20790478036486
 21
-186.83999610472139
 40
 6.4000000000000012
 41
 0.8
  1
2
 50
 0.0000000000000495
 72
  5
  0
LINE
  8
177
  6
CONTINUOUS
 62
     2
 10
 98.178718928708349
 20
-173.40142842157113
 11
 124.52297853043331
 21
-173.40142842157113
  0
LINE
  8
177
  6
CONTINUOUS
 62
     2
 10
 124.52297853043331
 20
-173.40142842157113
 11
 114.52297853043331
 21
-171.40142842157113
  0
LINE
  8
177
  6
CONTINUOUS
 62
     2
 10
 114.52297853043331
 20
-171.40142842157113
 11
 113.51615357146457
 21
-176.43555321641483
  0
LINE
  8
177
  6
CONTINUOUS
 62
     2
 10
 98.178718928708349
 20
-163.1620034334305
 11
 124.52297853043331
 21
-163.1620034334305
  0
LINE
  8
177
  6
CONTINUOUS
 62
     2
 10
 124.52297853043331
 20
-163.1620034334305
 11
 114.52297853043331
 21
-161.1620034334305
  0
LINE
  8
177
  6
CONTINUOUS
 62
     2
 10
 114.52297853043331
 20
-161.1620034334305
 11
 113.51615357146457
 21
-166.1961282282742
  0
LINE
  8
177
  6
CONTINUOUS
 62
     2
 10
 98.178718928708349
 20
-111.96486371358277
 11
 124.52297853043331
 21
-111.96486371358277
  0
LINE
  8
177
  6
CONTINUOUS
 62
     2
 10
 124.52297853043331
 20
-111.96486371358277
 11
 114.52297853043331
 21
-109.96486371358277
  0
LINE
  8
177
  6
CONTINUOUS
 62
     2
 10
 114.52297853043331
 20
-109.96486371358277
 11
 113.51615357146457
 21
-114.99898850842648
  0
LINE
  8
177
  6
CONTINUOUS
 62
     2
 10
 98.178718928708349
 20
-91.486010185724226
 11
 124.52297853043331
 21
-91.486010185724226
  0
LINE
  8
177
  6
CONTINUOUS
 62
     2
 10
 124.52297853043331
 20
-91.486010185724226
 11
 114.52297853043331
 21
-89.486010185724226
  0
LINE
  8
177
  6
CONTINUOUS
 62
     2
 10
 114.52297853043331
 20
-89.486010185724226
 11
 113.51615357146457
 21
-94.520134980567931
  0
LINE
  8
177
  6
CONTINUOUS
 62
     2
 10
 98.178718928708349
 20
-71.007156543298436
 11
 124.52297853043331
 21
-71.007156543298436
  0
LINE
  8
177
  6
CONTINUOUS
 62
     2
 10
 124.52297853043331
 20
-71.007156543298436
 11
 114.52297853043331
 21
-69.007156543298436
  0
LINE
  8
177
  6
CONTINUOUS
 62
     2
 10
 114.52297853043331
 20
-69.007156543298436
 11
 113.51615357146457
 21
-74.041281338142142
  0
LINE
  8
177
  6
CONTINUOUS
 62
     2
 10
 98.178718928708349
 20
-50.528302900872859
 11
 124.52297853043331
 21
-50.528302900872859
  0
LINE
  8
177
  6
CONTINUOUS
 62
     2
 10
 124.52297853043331
 20
-50.528302900872859
 11
 114.52297853043331
 21
-48.528302900872859
  0
LINE
  8
177
  6
CONTINUOUS
 62
     2
 10
 114.52297853043331
 20
-48.528302900872859
 11
 113.51615357146457
 21
-53.562427695716565
  0
LINE
  8
177
  6
CONTINUOUS
 62
     2
 10
 98.178718928708349
 20
-40.288878027299376
 11
 124.52297853043331
 21
-40.288878027299376
  0
LINE
  8
177
  6
CONTINUOUS
 62
     2
 10
 124.52297853043331
 20
-40.288878027299376
 11
 114.52297853043331
 21
-38.288878027299376
  0
LINE
  8
177
  6
CONTINUOUS
 62
     2
 10
 114.52297853043331
 20
-38.288878027299376
 11
 113.51615357146457
 21
-43.323002822143081
  0
LINE
  8
177
  6
CONTINUOUS
 62
     2
 10
 98.178718928708349
 20
-30.049449373014369
 11
 124.52297853043331
 21
-30.049449373014369
  0
LINE
  8
177
  6
CONTINUOUS
 62
     2
 10
 124.52297853043331
 20
-30.049449373014369
 11
 114.52297853043331
 21
-28.049449373014369
  0
LINE
  8
177
  6
CONTINUOUS
 62
     2
 10
 114.52297853043331
 20
-28.049449373014369
 11
 113.51615357146457
 21
-33.083574167858075
  0
LINE
  8
177
  6
CONTINUOUS
 62
     2
 10
 98.178718928708349
 20
-19.810024499440885
 11
 124.52297853043331
 21
-19.810024499440885
  0
LINE
  8
177
  6
CONTINUOUS
 62
     2
 10
 124.52297853043331
 20
-19.810024499440885
 11
 114.52297853043331
 21
-17.810024499440885
  0
LINE
  8
177
  6
CONTINUOUS
 62
     2
 10
 114.52297853043331
 20
-17.810024499440885
 11
 113.51615357146457
 21
-22.844149294284591
  0
TEXT
  8
218
  6
CONTINUOUS
 62
     96
 10
 161.23308251514808
 20
-197.08028567285754
 11
 172.53974851514809
 21
-197.08028567285751
 40
 6.4000000000000004
 41
 0.8
  1
備考
 50
 0
 72
  5
  0
TEXT
  8
218
  6
CONTINUOUS
 62
     96
 10
 71.006589127845871
 20
-193.82042759275024
 11
 79.006589127845871
 21
-193.82042759275024
 40
 5
 41
 0.8
  1
Ｓ４
 50
 0.0000000000000495
 72
  5
  0
TEXT
  8
218
  6
CONTINUOUS
 62
     96
 10
 89.178718928708349
 20
-198.94014283642875
 11
 97.178718928708349
 21
-198.94014283642875
 40
 5
 41
 0.8
  1
材質
 50
 0.0000000000000495
 72
  5
  0
TEXT
  8
218
  6
CONTINUOUS
 62
     96
 10
 107.35084872957083
 20
-193.82042759275021
 11
 115.35084872957081
 21
-193.82042759275021
 40
 5
 41
 0.8
  1
Ｓ６
 50
 0.0000000000000495
 72
  5
  0
LINE
  8
218
  6
CONTINUOUS
 62
     7
 10
 56.834459326983392
 20
-193.88028567285755
 11
 129.52297853043331
 21
-193.88028567285755
  0
LINE
  8
0
  6
CONTINUOUS
 62
     4
 10
 83.15657413967358
 20
 187.62275516727834
 11
 99.629494172659705
 21
 189.89834110749641
  0
LINE
  8
0
  6
CONTINUOUS
 62
     4
 10
 83.156574139673495
 20
 92.622687167278457
 11
 114.57421190683463
 21
 81.713835394202704
  0
ARC
  8
0
  6
CONTINUOUS
 62
     7
 10
 118.38788443036258
 20
 178.70852120174848
 40
 21.842373373407792
 50
 149.18293459881198
 51
-133.45269531545327
  0
ARC
  8
0
  6
CONTINUOUS
 62
     7
 10
 88.343462782044298
 20
 146.99590815659749
 40
 21.842373373407792
 50
-30.817068471657056
 51
 46.547307755015744
  0
ARC
  8
0
  6
CONTINUOUS
 62
     7
 10
 125.86024329745001
 20
 124.61626834510164
 40
 21.842373373407792
 50
 149.18293459881198
 51
-133.45269531545327
  0
ARC
  8
0
  6
CONTINUOUS
 62
     7
 10
 95.815821649131749
 20
 92.903655299950657
 40
 21.842373373407792
 50
-30.817068471657056
 51
 46.547307755015744
  0
ARC
  8
0
  6
CONTINUOUS
 62
     3
 10
 106.15657413967349
 20
 113.12268716727846
 40
 3
 50
 97.814117490154501
 51
-37.302222063454934
  0
TEXT
  8
0
  6
CONTINUOUS
 62
     3
 10
-64.350000041723249
 20
-269.5
 11
-33.150000041723239
 21
-269.5
 40
 7
 41
 0.8
  1
山田
 50
 0
 72
  5
  0
TEXT
  8
218
  6
CONTINUOUS
 62
     96
 10
 134.08790478036485
 20
-104.92457408816318
 11
 139.20790478036486
 21
-104.92457408816318
 40
 6.4000000000000012
 41
 0.8
  1
1
 50
 0.0000000000000495
 72
  5
  0
TEXT
  8
218
  6
CONTINUOUS
 62
     96
 10
 134.08790478036485
 20
-94.685149100022514
 11
 139.20790478036486
 21
-94.685149100022514
 40
 6.4000000000000012
 41
 0.8
  1
1
 50
 0.0000000000000495
 72
  5
  0
TEXT
  8
218
  6
CONTINUOUS
 62
     96
 10
 134.08790478036485
 20
-84.445720560304636
 11
 139.20790478036486
 21
-84.445720560304636
 40
 6.4000000000000012
 41
 0.8
  1
1
 50
 0.0000000000000495
 72
  5
  0
TEXT
  8
218
  6
CONTINUOUS
 62
     96
 10
 134.08790478036485
 20
-74.206295572163967
 11
 139.20790478036486
 21
-74.206295572163967
 40
 6.4000000000000012
 41
 0.8
  1
1
 50
 0.0000000000000495
 72
  5
  0
TEXT
  8
218
  6
CONTINUOUS
 62
     96
 10
 134.08790478036485
 20
-63.966866917878825
 11
 139.20790478036486
 21
-63.966866917878832
 40
 6.4000000000000012
 41
 0.8
  1
1
 50
 0.0000000000000495
 72
  5
  0
TEXT
  8
218
  6
CONTINUOUS
 62
     96
 10
 134.08790478036485
 20
-53.727441929738156
 11
 139.20790478036486
 21
-53.727441929738163
 40
 6.4000000000000012
 41
 0.8
  1
1
 50
 0.0000000000000495
 72
  5
  0
TEXT
  8
218
  6
CONTINUOUS
 62
     96
 10
 134.08790478036485
 20
-43.488013275453248
 11
 139.20790478036486
 21
-43.488013275453255
 40
 6.4000000000000012
 41
 0.8
  1
1
 50
 0.0000000000000495
 72
  5
  0
TEXT
  8
218
  6
CONTINUOUS
 62
     96
 10
 134.08790478036485
 20
-33.248588287312586
 11
 139.20790478036486
 21
-33.248588287312586
 40
 6.4000000000000012
 41
 0.8
  1
1
 50
 0.0000000000000495
 72
  5
  0
TEXT
  8
218
  6
CONTINUOUS
 62
     96
 10
 134.08790478036485
 20
-23.009163413739124
 11
 139.20790478036486
 21
-23.009163413739113
 40
 6.4000000000000012
 41
 0.8
  1
1
 50
 0.0000000000000495
 72
  5
  0
LINE
  8
0
  6
CONTINUOUS
 62
     4
 10
 88.15657413967358
 20
 175.62275516727834
 11
 96.629645780013888
 21
 176.79323390793934
  0
LINE
  8
0
  6
CONTINUOUS
 62
     4
 10
 88.156574139673495
 20
 104.62268716727846
 11
 117.60709554486451
 21
 94.396858763819438
  0
LINE
  8
0
  6
CONTINUOUS
 62
     3
 10
 71.156574139673495
 20
 160.1227211672784
 11
 79.156574139673495
 21
 160.1227211672784
  0
LINE
  8
0
  6
CONTINUOUS
 62
     3
 10
 79.156574139673495
 20
 160.1227211672784
 11
 79.156574139673495
 21
 150.1227211672784
  0
LINE
  8
0
  6
CONTINUOUS
 62
     3
 10
 73.156574139673495
 20
 152.1227211672784
 11
 73.156574139673495
 21
 158.1227211672784
  0
LINE
  8
0
  6
CONTINUOUS
 62
     3
 10
 73.156574139673495
 20
 158.1227211672784
 11
 77.156574139673495
 21
 158.12272116727837
  0
LINE
  8
0
  6
CONTINUOUS
 62
     3
 10
 73.156574139673495
 20
 150.1227211672784
 11
 75.047173747223042
 21
 151.38312090564474
  0
LINE
  8
0
  6
CONTINUOUS
 62
     3
 10
 77.265974532123948
 20
 151.38312090564477
 11
 79.156574139673495
 21
 150.1227211672784
  0
ARC
  8
0
  6
CONTINUOUS
 62
     3
 10
 76.156574139673495
 20
 149.71902031696908
 40
 2
 50
 56.30993343456435
 51
 123.69006963590513
  0
LINE
  8
0
  6
CONTINUOUS
 62
     3
 10
 77.265974532123948
 20
 153.38312090564477
 11
 79.156574139673495
 21
 152.1227211672784
  0
ARC
  8
0
  6
CONTINUOUS
 62
     3
 10
 76.156574139673495
 20
 151.71902031696908
 40
 2
 50
 56.30993343456435
 51
 123.69006963590513
  0
LINE
  8
0
  6
CONTINUOUS
 62
     3
 10
 73.156574139673495
 20
 152.1227211672784
 11
 75.047173747223042
 21
 153.38312090564474
  0
LINE
  8
0
  6
CONTINUOUS
 62
     3
 10
 77.156574139673495
 20
 158.12272116727837
 11
 77.156574139673495
 21
 156.34364383770387
  0
LINE
  8
0
  6
CONTINUOUS
 62
     3
 10
 77.156574139673495
 20
 156.34364383770387
 11
 79.156574139673495
 21
 156.34364383770387
  0
CIRCLE
  8
0
  6
CONTINUOUS
 62
     3
 10
 75.033043508804212
 20
 155.84484035454423
 40
 1.8764693691307337
  0
LINE
  8
0
  6
CONTINUOUS
 62
     3
 10
 71.156574139673495
 20
 120.12272116727839
 11
 79.156574139673495
 21
 120.12272116727839
  0
LINE
  8
0
  6
CONTINUOUS
 62
     3
 10
 79.156574139673495
 20
 120.12272116727839
 11
 79.156574139673495
 21
 130.1227211672784
  0
LINE
  8
0
  6
CONTINUOUS
 62
     3
 10
 73.156574139673495
 20
 128.1227211672784
 11
 73.156574139673495
 21
 122.12272116727839
  0
LINE
  8
0
  6
CONTINUOUS
 62
     3
 10
 73.156574139673495
 20
 122.12272116727839
 11
 77.156574139673495
 21
 122.12272116727844
  0
LINE
  8
0
  6
CONTINUOUS
 62
     3
 10
 73.156574139673495
 20
 130.1227211672784
 11
 75.047173747223042
 21
 128.86232142891205
  0
LINE
  8
0
  6
CONTINUOUS
 62
     3
 10
 77.265974532123948
 20
 128.86232142891203
 11
 79.156574139673495
 21
 130.1227211672784
  0
ARC
  8
0
  6
CONTINUOUS
 62
     3
 10
 76.156574139673495
 20
 130.52642201758772
 40
 2
 50
-123.69006963590513
 51
-56.30993343456435
  0
LINE
  8
0
  6
CONTINUOUS
 62
     3
 10
 77.265974532123948
 20
 126.86232142891203
 11
 79.156574139673495
 21
 128.1227211672784
  0
ARC
  8
0
  6
CONTINUOUS
 62
     3
 10
 76.156574139673495
 20
 128.52642201758772
 40
 2
 50
-123.69006963590513
 51
-56.30993343456435
  0
LINE
  8
0
  6
CONTINUOUS
 62
     3
 10
 73.156574139673495
 20
 128.1227211672784
 11
 75.047173747223042
 21
 126.86232142891205
  0
LINE
  8
0
  6
CONTINUOUS
 62
     3
 10
 77.156574139673495
 20
 122.12272116727844
 11
 77.156574139673495
 21
 123.90179849685295
  0
LINE
  8
0
  6
CONTINUOUS
 62
     3
 10
 77.156574139673495
 20
 123.90179849685295
 11
 79.156574139673495
 21
 123.90179849685295
  0
CIRCLE
  8
0
  6
CONTINUOUS
 62
     3
 10
 75.033043508804212
 20
 124.40060198001257
 40
 1.8764693691307337
  0
POINT
  8
0
  6
CONTINUOUS
 62
     3
 10
-99.843407860326835
 20
 140.12272116727846
  0
INSERT
  8
0
  2
CADWIN-G0
 10
0.0
 20
0.0
  0
INSERT
  8
0
  2
CADWIN-G1
 10
0.0
 20
0.0
  0
INSERT
  8
0
  2
CADWIN-G2
 10
0.0
 20
0.0
  0
INSERT
  8
0
  2
CADWIN-G3
 10
0.0
 20
0.0
  0
INSERT
  8
0
  2
CADWIN-G4
 10
0.0
 20
0.0
  0
INSERT
  8
0
  2
CADWIN-G5
 10
0.0
 20
0.0
  0
INSERT
  8
0
  2
CADWIN-G6
 10
0.0
 20
0.0
  0
INSERT
  8
0
  2
CADWIN-G7
 10
0.0
 20
0.0
  0
INSERT
  8
0
  2
CADWIN-G8
 10
0.0
 20
0.0
  0
INSERT
  8
0
  2
CADWIN-G9
 10
0.0
 20
0.0
  0
INSERT
  8
0
  2
CADWIN-G10
 10
0.0
 20
0.0
  0
INSERT
  8
0
  2
CADWIN-G11
 10
0.0
 20
0.0
  0
INSERT
  8
0
  2
CADWIN-G12
 10
0.0
 20
0.0
  0
LINE
  8
5
  6
CONTINUOUS
 62
     4
 10
-70.343401860326992
 20
 212.62272116727843
 11
-85.343413860326507
 21
 212.62272116727843
  0
LINE
  8
0
  6
CONTINUOUS
 62
     3
 10
-74.843407860326778
 20
 212.62272116727843
 11
-74.843407860326778
 21
 186.62272116727843
  0
LINE
  8
0
  6
CONTINUOUS
 62
     3
 10
-80.843407860326778
 20
 212.62272116727843
 11
-80.843407860326778
 21
 186.62272116727843
  0
LINE
  8
0
  6
CONTINUOUS
 62
     3
 10
-88.493407860326755
 20
 158.12272116727843
 11
-83.843407860326778
 21
 158.12272116727843
  0
LINE
  8
0
  6
CONTINUOUS
 62
     3
 10
-71.843407860326778
 20
 158.12272116727843
 11
-67.193407860326687
 21
 158.12272116727843
  0
LINE
  8
0
  6
CONTINUOUS
 62
     3
 10
-88.493407860326755
 20
 161.12272116727843
 11
-83.843407860326778
 21
 161.12272116727843
  0
LINE
  8
0
  6
CONTINUOUS
 62
     3
 10
-71.843407860326778
 20
 161.12272116727843
 11
-67.193407860326687
 21
 161.12272116727843
  0
LINE
  8
0
  6
CONTINUOUS
 62
     3
 10
-67.193407860326687
 20
 161.12272116727843
 11
-67.193407860326687
 21
 158.12272116727843
  0
LINE
  8
0
  6
CONTINUOUS
 62
     3
 10
-88.493407860326755
 20
 161.12272116727843
 11
-88.493407860326755
 21
 158.12272116727843
  0
LINE
  8
0
  6
CENTER
 62
     7
 10
-70.193407860326772
 20
 161.12272116727843
 11
-70.193407860326772
 21
 176.12272116727843
  0
LINE
  8
0
  6
CENTER
 62
     7
 10
-70.193407860326772
 20
 176.12272116727843
 11
-69.193407860326772
 21
 177.12272116727843
  0
LINE
  8
0
  6
CENTER
 62
     7
 10
-85.493407860326755
 20
 161.12272116727843
 11
-85.493407860326755
 21
 176.12272116727843
  0
LINE
  8
0
  6
CENTER
 62
     7
 10
-85.493407860326755
 20
 176.12272116727843
 11
-86.493407860326755
 21
 177.12272116727843
  0
LINE
  8
0
  6
CONTINUOUS
 62
     7
 10
-85.343413860326535
 20
 197.62272116727843
 11
-86.493407860326727
 21
 197.62272116727843
  0
LINE
  8
0
  6
CONTINUOUS
 62
     7
 10
-70.343401860326992
 20
 197.62272116727843
 11
-69.193407860326772
 21
 197.62272116727843
  0
LINE
  8
0
  6
CONTINUOUS
 62
     7
 10
-85.343413860326507
 20
 212.62272116727843
 11
-85.343413860326535
 21
 197.62272116727843
  0
LINE
  8
5
  6
CONTINUOUS
 62
     4
 10
-86.493407860326755
 20
 161.12272116727843
 11
-86.493407860326755
 21
 202.62272116727843
  0
LINE
  8
0
  6
CONTINUOUS
 62
     3
 10
-85.343413860326507
 20
 212.62272116727843
 11
-86.343413860326507
 21
 202.62272116727843
  0
LINE
  8
0
  6
CONTINUOUS
 62
     7
 10
-70.343401860326992
 20
 212.62272116727843
 11
-70.343401860326992
 21
 197.62272116727843
  0
LINE
  8
5
  6
CONTINUOUS
 62
     4
 10
-69.193407860326687
 20
 161.12272116727843
 11
-69.193407860326658
 21
 202.62272116729071
  0
LINE
  8
0
  6
CONTINUOUS
 62
     3
 10
-70.343401860326992
 20
 212.62272116727843
 11
-69.343401860326992
 21
 202.62272116729071
  0
LINE
  8
0
  6
CONTINUOUS
 62
     3
 10
-74.343407860326835
 20
 155.62272116727843
 11
-74.343407860326835
 21
 151.12272116727837
  0
LINE
  8
0
  6
CONTINUOUS
 62
     3
 10
-81.343407860326664
 20
 155.62272116727843
 11
-81.343407860326664
 21
 151.12272116727837
  0
LINE
  8
0
  6
CONTINUOUS
 62
     3
 10
-67.193407860326687
 20
 119.12272116727836
 11
-67.193407860326687
 21
 122.12272116727836
  0
LINE
  8
0
  6
CONTINUOUS
 62
     3
 10
-88.493407860326755
 20
 119.12272116727836
 11
-88.493407860326755
 21
 122.12272116727836
  0
LINE
  8
0
  6
CENTER
 62
     7
 10
-85.493407860326755
 20
 104.12272116727837
 11
-86.493407860326755
 21
 103.12272116727837
  0
LINE
  8
0
  6
CENTER
 62
     7
 10
-70.193407860326772
 20
 104.12272116727837
 11
-69.193407860326772
 21
 103.12272116727837
  0
LINE
  8
0
  6
CONTINUOUS
 62
     7
 10
-85.343413860326535
 20
 82.622721167278371
 11
-86.493407860326727
 21
 82.622721167278371
  0
LINE
  8
0
  6
CONTINUOUS
 62
     7
 10
-85.343413860326507
 20
 67.622721167278371
 11
-85.343413860326535
 21
 82.622721167278371
  0
LINE
  8
0
  6
CONTINUOUS
 62
     3
 10
-85.343413860326507
 20
 67.622721167278371
 11
-86.343413860326507
 21
 77.622721167278371
  0
LINE
  8
0
  6
CONTINUOUS
 62
     7
 10
-70.343401860326992
 20
 82.622721167278371
 11
-69.193407860326772
 21
 82.622721167278371
  0
LINE
  8
0
  6
CONTINUOUS
 62
     7
 10
-70.343401860326992
 20
 67.622721167278371
 11
-70.343401860326992
 21
 82.622721167278371
  0
LINE
  8
0
  6
CONTINUOUS
 62
     3
 10
-70.343401860326992
 20
 67.622721167278371
 11
-69.343401860326992
 21
 77.622721167266093
  0
LINE
  8
0
  6
CONTINUOUS
 62
     3
 10
-71.843407860326778
 20
 122.12272116727836
 11
-67.193407860326687
 21
 122.12272116727836
  0
LINE
  8
0
  6
CONTINUOUS
 62
     3
 10
-71.843407860326778
 20
 119.12272116727836
 11
-67.193407860326687
 21
 119.12272116727836
  0
LINE
  8
0
  6
CONTINUOUS
 62
     3
 10
-88.493407860326755
 20
 122.12272116727836
 11
-83.843407860326778
 21
 122.12272116727836
  0
LINE
  8
0
  6
CONTINUOUS
 62
     3
 10
-88.493407860326755
 20
 119.12272116727836
 11
-83.843407860326778
 21
 119.12272116727836
  0
LINE
  8
0
  6
CONTINUOUS
 62
     3
 10
-81.343407860326664
 20
 124.62272116727836
 11
-81.343407860326664
 21
 129.12272116727843
  0
LINE
  8
0
  6
CONTINUOUS
 62
     3
 10
-74.343407860326835
 20
 124.62272116727836
 11
-74.343407860326835
 21
 129.12272116727843
  0
LINE
  8
0
  6
CENTER
 62
     7
 10
-85.493407860326755
 20
 119.12272116727836
 11
-85.493407860326755
 21
 104.12272116727837
  0
LINE
  8
5
  6
CONTINUOUS
 62
     4
 10
-86.493407860326755
 20
 119.12272116727836
 11
-86.493407860326755
 21
 77.622721167278371
  0
LINE
  8
0
  6
CENTER
 62
     7
 10
-70.193407860326772
 20
 119.12272116727836
 11
-70.193407860326772
 21
 104.12272116727837
  0
LINE
  8
5
  6
CONTINUOUS
 62
     4
 10
-69.193407860326687
 20
 119.12272116727836
 11
-69.193407860326658
 21
 77.622721167266093
  0
LINE
  8
5
  6
CONTINUOUS
 62
     4
 10
-70.343401860326992
 20
 67.622721167278371
 11
-85.343413860326507
 21
 67.622721167278371
  0
LINE
  8
0
  6
CONTINUOUS
 62
     3
 10
-80.843407860326778
 20
 67.622721167278371
 11
-80.843407860326778
 21
 93.622721167278371
  0
LINE
  8
0
  6
CONTINUOUS
 62
     3
 10
-74.843407860326778
 20
 67.622721167278371
 11
-74.843407860326778
 21
 93.622721167278371
  0
INSERT
  8
0
  2
CADWIN-G13
 10
0.0
 20
0.0
  0
INSERT
  8
0
  2
CADWIN-G14
 10
0.0
 20
0.0
  0
INSERT
  8
0
  2
CADWIN-G15
 10
0.0
 20
0.0
  0
INSERT
  8
0
  2
CADWIN-G16
 10
0.0
 20
0.0
  0
INSERT
  8
0
  2
CADWIN-G17
 10
0.0
 20
0.0
  0
INSERT
  8
0
  2
CADWIN-G18
 10
0.0
 20
0.0
  0
LINE
  8
128
  6
CONTINUOUS
 62
     3
 10
-78.343407860326721
 20
 123.62272116727836
 11
-78.343407860326721
 21
 121.62272116727836
  0
LINE
  8
128
  6
CONTINUOUS
 62
     3
 10
-81.343407860326721
 20
 123.62272116727836
 11
-81.343407860326721
 21
 121.62272116727836
  0
LINE
  8
128
  6
CONTINUOUS
 62
     3
 10
-77.343407860326835
 20
 123.62272116727836
 11
-77.343407860326835
 21
 121.62272116727836
  0
LINE
  8
128
  6
CONTINUOUS
 62
     3
 10
-74.343407860326835
 20
 123.62272116727836
 11
-74.343407860326835
 21
 121.62272116727836
  0
LINE
  8
128
  6
CONTINUOUS
 62
     3
 10
-73.843407860326778
 20
 113.62272116727837
 11
-73.843407860326778
 21
 115.62272116727836
  0
LINE
  8
128
  6
CONTINUOUS
 62
     3
 10
-81.843407860326778
 20
 115.62272116727836
 11
-81.843407860326778
 21
 113.62272116727837
  0
LINE
  8
128
  6
CONTINUOUS
 62
     3
 10
-75.843407860326778
 20
 115.62272116727836
 11
-75.843407860326778
 21
 110.62272116727837
  0
LINE
  8
128
  6
CONTINUOUS
 62
     3
 10
-79.843407860326778
 20
 115.62272116727836
 11
-79.843407860326778
 21
 110.62272116727837
  0
LINE
  8
128
  6
CONTINUOUS
 62
     3
 10
-83.843407860326778
 20
 113.62272116727837
 11
-81.843407860326778
 21
 113.62272116727837
  0
LINE
  8
128
  6
CONTINUOUS
 62
     3
 10
-73.843407860326778
 20
 113.62272116727837
 11
-71.843407860326778
 21
 113.62272116727837
  0
CIRCLE
  8
128
  6
CONTINUOUS
 62
     3
 10
-77.843407860326778
 20
 118.08861350069448
 40
 3.1749999999999998
  0
LINE
  8
0
  6
CONTINUOUS
 62
     3
 10
-81.843407860326778
 20
 109.62272116727837
 11
-79.843407860326778
 21
 110.62272116727837
  0
LINE
  8
0
  6
CONTINUOUS
 62
     3
 10
-75.843407860326778
 20
 110.62272116727837
 11
-73.843407860326778
 21
 109.62272116727837
  0
LINE
  8
128
  6
CENTER
 62
     7
 10
-75.843407860326835
 20
 124.60321595649073
 11
-75.843407860326835
 21
 120.77361400105809
  0
LINE
  8
128
  6
CENTER
 62
     7
 10
-79.843407860326721
 20
 124.60321595649073
 11
-79.843407860326721
 21
 120.77361400105809
  0
LINE
  8
0
  6
CONTINUOUS
 62
     3
 10
-83.843407860326778
 20
 124.62272116727836
 11
-71.843407860326778
 21
 124.62272116727836
  0
LINE
  8
128
  6
CONTINUOUS
 62
     3
 10
-81.343407860326664
 20
 108.62272116727837
 11
-81.343407860326664
 21
 106.62272116727837
  0
LINE
  8
128
  6
CONTINUOUS
 62
     3
 10
-74.343407860326835
 20
 108.62272116727837
 11
-74.343407860326835
 21
 106.62272116727837
  0
LINE
  8
128
  6
CONTINUOUS
 62
     3
 10
-83.843407860326778
 20
 124.62272116727836
 11
-83.843407860326778
 21
 93.622721167278371
  0
LINE
  8
128
  6
CONTINUOUS
 62
     3
 10
-71.843407860326778
 20
 93.622721167278371
 11
-71.843407860326778
 21
 124.62272116727836
  0
LINE
  8
128
  6
CONTINUOUS
 62
     3
 10
-71.843407860326778
 20
 123.62272116727836
 11
-83.843407860326778
 21
 123.62272116727836
  0
LINE
  8
128
  6
CONTINUOUS
 62
     3
 10
-83.843407860326778
 20
 114.62272116727837
 11
-81.843407860326778
 21
 114.62272116727837
  0
LINE
  8
128
  6
CONTINUOUS
 62
     3
 10
-73.843407860326778
 20
 114.62272116727837
 11
-71.843407860326778
 21
 114.62272116727837
  0
LINE
  8
128
  6
CONTINUOUS
 62
     3
 10
-81.843407860326778
 20
 114.62272116727837
 11
-81.843407860326778
 21
 121.62272116727836
  0
LINE
  8
128
  6
CONTINUOUS
 62
     3
 10
-81.843407860326778
 20
 121.62272116727836
 11
-73.843407860326778
 21
 121.62272116727836
  0
LINE
  8
128
  6
CONTINUOUS
 62
     3
 10
-73.843407860326778
 20
 121.62272116727836
 11
-73.843407860326778
 21
 114.62272116727837
  0
LINE
  8
128
  6
CONTINUOUS
 62
     3
 10
-83.843407860326778
 20
 109.62272116727837
 11
-71.843407860326778
 21
 109.62272116727837
  0
LINE
  8
128
  6
CONTINUOUS
 62
     3
 10
-73.843407860326778
 20
 115.62272116727836
 11
-75.843407860326835
 21
 115.62272116727836
  0
LINE
  8
128
  6
CONTINUOUS
 62
     3
 10
-79.843407860326721
 20
 115.62272116727836
 11
-81.843407860326778
 21
 115.62272116727836
  0
LINE
  8
128
  6
CONTINUOUS
 62
     3
 10
-78.343407860326721
 20
 108.62272116727837
 11
-78.343407860326721
 21
 106.62272116727837
  0
LINE
  8
128
  6
CONTINUOUS
 62
     3
 10
-77.343407860326835
 20
 108.62272116727837
 11
-77.343407860326835
 21
 106.62272116727837
  0
LINE
  8
128
  6
CONTINUOUS
 62
     3
 10
-73.843407860326778
 20
 98.622721167278371
 11
-73.843407860326778
 21
 100.62272116727837
  0
LINE
  8
128
  6
CONTINUOUS
 62
     3
 10
-81.843407860326778
 20
 100.62272116727837
 11
-81.843407860326778
 21
 98.622721167278371
  0
LINE
  8
128
  6
CONTINUOUS
 62
     3
 10
-75.843407860326778
 20
 100.62272116727837
 11
-75.843407860326778
 21
 95.622721167278371
  0
LINE
  8
128
  6
CONTINUOUS
 62
     3
 10
-79.843407860326778
 20
 100.62272116727837
 11
-79.843407860326778
 21
 95.622721167278371
  0
LINE
  8
128
  6
CONTINUOUS
 62
     3
 10
-83.843407860326778
 20
 98.622721167278371
 11
-81.843407860326778
 21
 98.622721167278371
  0
LINE
  8
128
  6
CONTINUOUS
 62
     3
 10
-73.843407860326778
 20
 98.622721167278371
 11
-71.843407860326778
 21
 98.622721167278371
  0
CIRCLE
  8
128
  6
CONTINUOUS
 62
     3
 10
-77.843407860326778
 20
 103.08861350069446
 40
 3.1749999999999998
  0
LINE
  8
0
  6
CONTINUOUS
 62
     3
 10
-81.843407860326835
 20
 94.622721167278371
 11
-79.843407860326778
 21
 95.622721167278371
  0
LINE
  8
0
  6
CONTINUOUS
 62
     3
 10
-75.843407860326778
 20
 95.622721167278371
 11
-73.843407860326778
 21
 94.622721167278371
  0
LINE
  8
0
  6
CONTINUOUS
 62
     3
 10
-71.843407860326835
 20
 93.622721167278371
 11
-83.843407860326835
 21
 93.622721167278371
  0
LINE
  8
128
  6
CONTINUOUS
 62
     3
 10
-81.843407860326778
 20
 94.622721167278371
 11
-81.843407860326778
 21
 93.622721167278371
  0
LINE
  8
128
  6
CONTINUOUS
 62
     3
 10
-73.843407860326778
 20
 94.622721167278371
 11
-73.843407860326778
 21
 93.622721167278371
  0
LINE
  8
128
  6
CONTINUOUS
 62
     3
 10
-71.843407860326778
 20
 108.62272116727837
 11
-83.843407860326778
 21
 108.62272116727837
  0
LINE
  8
128
  6
CONTINUOUS
 62
     3
 10
-83.843407860326778
 20
 99.622721167278371
 11
-81.843407860326778
 21
 99.622721167278371
  0
LINE
  8
128
  6
CONTINUOUS
 62
     3
 10
-73.843407860326778
 20
 99.622721167278371
 11
-71.843407860326778
 21
 99.622721167278371
  0
LINE
  8
128
  6
CONTINUOUS
 62
     3
 10
-81.843407860326778
 20
 99.622721167278371
 11
-81.843407860326778
 21
 106.62272116727837
  0
LINE
  8
128
  6
CONTINUOUS
 62
     3
 10
-81.843407860326778
 20
 106.62272116727837
 11
-73.843407860326778
 21
 106.62272116727837
  0
LINE
  8
128
  6
CONTINUOUS
 62
     3
 10
-73.843407860326778
 20
 106.62272116727837
 11
-73.843407860326778
 21
 99.622721167278371
  0
LINE
  8
128
  6
CONTINUOUS
 62
     3
 10
-83.843407860326778
 20
 94.622721167278371
 11
-71.843407860326778
 21
 94.622721167278371
  0
LINE
  8
128
  6
CONTINUOUS
 62
     3
 10
-73.843407860326778
 20
 100.62272116727837
 11
-75.843407860326835
 21
 100.62272116727837
  0
LINE
  8
128
  6
CONTINUOUS
 62
     3
 10
-79.843407860326721
 20
 100.62272116727837
 11
-81.843407860326778
 21
 100.62272116727837
  0
LINE
  8
128
  6
CENTER
 62
     7
 10
-79.843407860326721
 20
 109.60321595649071
 11
-79.843407860326721
 21
 105.77361400105809
  0
LINE
  8
128
  6
CENTER
 62
     7
 10
-75.843407860326835
 20
 109.60321595649071
 11
-75.843407860326835
 21
 105.77361400105809
  0
LINE
  8
0
  6
CONTINUOUS
 62
     3
 10
-73.843407860326778
 20
 123.62272116727836
 11
-73.843407860326778
 21
 124.62272116727836
  0
LINE
  8
0
  6
CONTINUOUS
 62
     3
 10
-81.843407860326778
 20
 123.62272116727836
 11
-81.843407860326778
 21
 124.62272116727836
  0
LINE
  8
0
  6
CONTINUOUS
 62
     3
 10
-73.843407860326778
 20
 109.62272116727837
 11
-73.843407860326778
 21
 108.62272116727837
  0
LINE
  8
0
  6
CONTINUOUS
 62
     3
 10
-81.843407860326778
 20
 109.62272116727837
 11
-81.843407860326778
 21
 108.62272116727837
  0
INSERT
  8
0
  2
CADWIN-G19
 10
0.0
 20
0.0
  0
INSERT
  8
0
  2
CADWIN-G20
 10
0.0
 20
0.0
  0
INSERT
  8
0
  2
CADWIN-G21
 10
0.0
 20
0.0
  0
INSERT
  8
0
  2
CADWIN-G22
 10
0.0
 20
0.0
  0
INSERT
  8
0
  2
CADWIN-G23
 10
0.0
 20
0.0
  0
LINE
  8
128
  6
CONTINUOUS
 62
     3
 10
-78.343407860326721
 20
 185.62272116727843
 11
-78.343407860326721
 21
 183.62272116727843
  0
LINE
  8
128
  6
CONTINUOUS
 62
     3
 10
-81.343407860326721
 20
 185.62272116727843
 11
-81.343407860326721
 21
 183.62272116727843
  0
LINE
  8
128
  6
CONTINUOUS
 62
     3
 10
-77.343407860326835
 20
 185.62272116727843
 11
-77.343407860326835
 21
 183.62272116727843
  0
LINE
  8
128
  6
CONTINUOUS
 62
     3
 10
-74.343407860326835
 20
 185.62272116727843
 11
-74.343407860326835
 21
 183.62272116727843
  0
LINE
  8
128
  6
CONTINUOUS
 62
     3
 10
-73.843407860326778
 20
 175.62272116727843
 11
-73.843407860326778
 21
 177.62272116727843
  0
LINE
  8
128
  6
CONTINUOUS
 62
     3
 10
-81.843407860326778
 20
 177.62272116727843
 11
-81.843407860326778
 21
 175.62272116727843
  0
LINE
  8
128
  6
CONTINUOUS
 62
     3
 10
-75.843407860326778
 20
 177.62272116727843
 11
-75.843407860326778
 21
 172.62272116727843
  0
LINE
  8
128
  6
CONTINUOUS
 62
     3
 10
-79.843407860326778
 20
 177.62272116727843
 11
-79.843407860326778
 21
 172.62272116727843
  0
LINE
  8
128
  6
CONTINUOUS
 62
     3
 10
-83.843407860326778
 20
 175.62272116727843
 11
-81.843407860326778
 21
 175.62272116727843
  0
LINE
  8
128
  6
CONTINUOUS
 62
     3
 10
-73.843407860326778
 20
 175.62272116727843
 11
-71.843407860326778
 21
 175.62272116727843
  0
CIRCLE
  8
128
  6
CONTINUOUS
 62
     3
 10
-77.843407860326778
 20
 180.08861350069452
 40
 3.1749999999999998
  0
LINE
  8
0
  6
CONTINUOUS
 62
     3
 10
-81.843407860326778
 20
 171.62272116727843
 11
-79.843407860326778
 21
 172.62272116727843
  0
LINE
  8
0
  6
CONTINUOUS
 62
     3
 10
-75.843407860326778
 20
 172.62272116727843
 11
-73.843407860326778
 21
 171.62272116727843
  0
LINE
  8
128
  6
CENTER
 62
     7
 10
-75.843407860326835
 20
 186.60321595649077
 11
-75.843407860326835
 21
 182.77361400105815
  0
LINE
  8
128
  6
CENTER
 62
     7
 10
-79.843407860326721
 20
 186.60321595649077
 11
-79.843407860326721
 21
 182.77361400105815
  0
LINE
  8
0
  6
CONTINUOUS
 62
     3
 10
-83.843407860326778
 20
 186.62272116727843
 11
-71.843407860326778
 21
 186.62272116727843
  0
LINE
  8
128
  6
CONTINUOUS
 62
     3
 10
-81.343407860326664
 20
 170.62272116727843
 11
-81.343407860326664
 21
 168.62272116727843
  0
LINE
  8
128
  6
CONTINUOUS
 62
     3
 10
-74.343407860326835
 20
 170.62272116727843
 11
-74.343407860326835
 21
 168.62272116727843
  0
LINE
  8
128
  6
CONTINUOUS
 62
     3
 10
-83.843407860326778
 20
 186.62272116727843
 11
-83.843407860326778
 21
 155.62272116727843
  0
LINE
  8
128
  6
CONTINUOUS
 62
     3
 10
-71.843407860326778
 20
 155.62272116727843
 11
-71.843407860326778
 21
 186.62272116727843
  0
LINE
  8
128
  6
CONTINUOUS
 62
     3
 10
-71.843407860326778
 20
 185.62272116727843
 11
-83.843407860326778
 21
 185.62272116727843
  0
LINE
  8
128
  6
CONTINUOUS
 62
     3
 10
-83.843407860326778
 20
 176.62272116727843
 11
-81.843407860326778
 21
 176.62272116727843
  0
LINE
  8
128
  6
CONTINUOUS
 62
     3
 10
-73.843407860326778
 20
 176.62272116727843
 11
-71.843407860326778
 21
 176.62272116727843
  0
LINE
  8
128
  6
CONTINUOUS
 62
     3
 10
-81.843407860326778
 20
 176.62272116727843
 11
-81.843407860326778
 21
 183.62272116727843
  0
LINE
  8
128
  6
CONTINUOUS
 62
     3
 10
-81.843407860326778
 20
 183.62272116727843
 11
-73.843407860326778
 21
 183.62272116727843
  0
LINE
  8
128
  6
CONTINUOUS
 62
     3
 10
-73.843407860326778
 20
 183.62272116727843
 11
-73.843407860326778
 21
 176.62272116727843
  0
LINE
  8
128
  6
CONTINUOUS
 62
     3
 10
-83.843407860326778
 20
 171.62272116727843
 11
-71.843407860326778
 21
 171.62272116727843
  0
LINE
  8
128
  6
CONTINUOUS
 62
     3
 10
-73.843407860326778
 20
 177.62272116727843
 11
-75.843407860326835
 21
 177.62272116727843
  0
LINE
  8
128
  6
CONTINUOUS
 62
     3
 10
-79.843407860326721
 20
 177.62272116727843
 11
-81.843407860326778
 21
 177.62272116727843
  0
LINE
  8
128
  6
CONTINUOUS
 62
     3
 10
-78.343407860326721
 20
 170.62272116727843
 11
-78.343407860326721
 21
 168.62272116727843
  0
LINE
  8
128
  6
CONTINUOUS
 62
     3
 10
-77.343407860326835
 20
 170.62272116727843
 11
-77.343407860326835
 21
 168.62272116727843
  0
LINE
  8
128
  6
CONTINUOUS
 62
     3
 10
-73.843407860326778
 20
 160.62272116727843
 11
-73.843407860326778
 21
 162.62272116727843
  0
LINE
  8
128
  6
CONTINUOUS
 62
     3
 10
-81.843407860326778
 20
 162.62272116727843
 11
-81.843407860326778
 21
 160.62272116727843
  0
LINE
  8
128
  6
CONTINUOUS
 62
     3
 10
-75.843407860326778
 20
 162.62272116727843
 11
-75.843407860326778
 21
 157.62272116727843
  0
LINE
  8
128
  6
CONTINUOUS
 62
     3
 10
-79.843407860326778
 20
 162.62272116727843
 11
-79.843407860326778
 21
 157.62272116727843
  0
LINE
  8
128
  6
CONTINUOUS
 62
     3
 10
-83.843407860326778
 20
 160.62272116727843
 11
-81.843407860326778
 21
 160.62272116727843
  0
LINE
  8
128
  6
CONTINUOUS
 62
     3
 10
-73.843407860326778
 20
 160.62272116727843
 11
-71.843407860326778
 21
 160.62272116727843
  0
CIRCLE
  8
128
  6
CONTINUOUS
 62
     3
 10
-77.843407860326778
 20
 165.08861350069452
 40
 3.1749999999999998
  0
LINE
  8
0
  6
CONTINUOUS
 62
     3
 10
-81.843407860326835
 20
 156.62272116727843
 11
-79.843407860326778
 21
 157.62272116727843
  0
LINE
  8
0
  6
CONTINUOUS
 62
     3
 10
-75.843407860326778
 20
 157.62272116727843
 11
-73.843407860326778
 21
 156.62272116727843
  0
LINE
  8
0
  6
CONTINUOUS
 62
     3
 10
-71.843407860326835
 20
 155.62272116727843
 11
-83.843407860326835
 21
 155.62272116727843
  0
LINE
  8
128
  6
CONTINUOUS
 62
     3
 10
-81.843407860326778
 20
 156.62272116727843
 11
-81.843407860326778
 21
 155.62272116727843
  0
LINE
  8
128
  6
CONTINUOUS
 62
     3
 10
-73.843407860326778
 20
 156.62272116727843
 11
-73.843407860326778
 21
 155.62272116727843
  0
LINE
  8
128
  6
CONTINUOUS
 62
     3
 10
-71.843407860326778
 20
 170.62272116727843
 11
-83.843407860326778
 21
 170.62272116727843
  0
LINE
  8
128
  6
CONTINUOUS
 62
     3
 10
-83.843407860326778
 20
 161.62272116727843
 11
-81.843407860326778
 21
 161.62272116727843
  0
LINE
  8
128
  6
CONTINUOUS
 62
     3
 10
-73.843407860326778
 20
 161.62272116727843
 11
-71.843407860326778
 21
 161.62272116727843
  0
LINE
  8
128
  6
CONTINUOUS
 62
     3
 10
-81.843407860326778
 20
 161.62272116727843
 11
-81.843407860326778
 21
 168.62272116727843
  0
LINE
  8
128
  6
CONTINUOUS
 62
     3
 10
-81.843407860326778
 20
 168.62272116727843
 11
-73.843407860326778
 21
 168.62272116727843
  0
LINE
  8
128
  6
CONTINUOUS
 62
     3
 10
-73.843407860326778
 20
 168.62272116727843
 11
-73.843407860326778
 21
 161.62272116727843
  0
LINE
  8
128
  6
CONTINUOUS
 62
     3
 10
-83.843407860326778
 20
 156.62272116727843
 11
-71.843407860326778
 21
 156.62272116727843
  0
LINE
  8
128
  6
CONTINUOUS
 62
     3
 10
-73.843407860326778
 20
 162.62272116727843
 11
-75.843407860326835
 21
 162.62272116727843
  0
LINE
  8
128
  6
CONTINUOUS
 62
     3
 10
-79.843407860326721
 20
 162.62272116727843
 11
-81.843407860326778
 21
 162.62272116727843
  0
LINE
  8
128
  6
CENTER
 62
     7
 10
-79.843407860326721
 20
 171.60321595649077
 11
-79.843407860326721
 21
 167.77361400105815
  0
LINE
  8
128
  6
CENTER
 62
     7
 10
-75.843407860326835
 20
 171.60321595649077
 11
-75.843407860326835
 21
 167.77361400105815
  0
LINE
  8
0
  6
CONTINUOUS
 62
     3
 10
-73.843407860326778
 20
 185.62272116727843
 11
-73.843407860326778
 21
 186.62272116727843
  0
LINE
  8
0
  6
CONTINUOUS
 62
     3
 10
-81.843407860326778
 20
 185.62272116727843
 11
-81.843407860326778
 21
 186.62272116727843
  0
LINE
  8
0
  6
CONTINUOUS
 62
     3
 10
-73.843407860326778
 20
 171.62272116727843
 11
-73.843407860326778
 21
 170.62272116727843
  0
LINE
  8
0
  6
CONTINUOUS
 62
     3
 10
-81.843407860326778
 20
 171.62272116727843
 11
-81.843407860326778
 21
 170.62272116727843
  0
INSERT
  8
0
  2
CADWIN-G24
 10
0.0
 20
0.0
  0
INSERT
  8
0
  2
CADWIN-G25
 10
0.0
 20
0.0
  0
INSERT
  8
0
  2
CADWIN-G26
 10
0.0
 20
0.0
  0
INSERT
  8
0
  2
CADWIN-G27
 10
0.0
 20
0.0
  0
INSERT
  8
0
  2
CADWIN-G28
 10
0.0
 20
0.0
  0
LINE
  8
177
  6
CONTINUOUS
 62
     2
 10
 56.598067104117767
 20
 3.9378908285591057
 11
 75.226271713836283
 21
-14.690313781159418
  0
LINE
  8
177
  6
CONTINUOUS
 62
     2
 10
 75.226271713836283
 20
-14.690313781159418
 11
 69.569417464343914
 21
-6.2050324069208358
  0
LINE
  8
177
  6
CONTINUOUS
 62
     2
 10
 69.569417464343914
 20
-6.2050324069208358
 11
 65.29782092861592
 21
-9.0527634307395175
  0
ENDSEC
  0
EOF
